Band : Tool
Album: Ænima
Track: 2
Song : Eulogy

Part : Bass
Tuning: drop D

Tabbed: Brad Haczynski 
Email : Tool-Bass-Tabs@nc.rr.com

Visit : Tooltabs.net

Legend

nh - natural harmonic

ph - pinch harmonic

pm - palm mute

x - muted string

h - hammer on

p - pull off

\\ - slide down

// - slide up

b - bend

~~ - vibrato

<7>- natural harmonic

x/// - pick scrape (directions same as slide)


 
Ok here is the Intro…it is ALL verified from great vids…..It is The Whammy that is giving
The echoing chorus type effect..that’s one of the cool features of the digitech bass whammy. A great
Vid of this Intro is Wilkes Barre 2001, so check it out on Youtube to see where I am coming from.
 
http://www.youtube.com/watch?v=wrcU3nOZyRY
 
Whammy on... set to Harmonizer  5thUp/6thUp
 
whammy back 
 
*- rock whammy fwd
**- rock whammy back
 
g-----------------
d------*<7>------- x8
a--<7>------<5>**-
d-----------------
 
 
Whammy rocked back but still on
(0:47) 
 
g-----------------------------
d--14--14--14--14--14h15--12-- x2
a-----------------------------
d-----------------------------
 
now...notice the variation...listen close to hear it...it’s there...
 
g------------------------------------------------------------ 
d--14--14--14--14--14h15--12-----14--14--14--14--14h15--15--- x13
a------------------------------------------------------------
d------------------------------------------------------------
 
Whammy off...
 
(2:08)
                                                           x4
g------------------------------------------------------------|-----------------------------
d--14--14--14--14--14h15--12-----14--14--14--14--14h15---15--|---14--14--14--14--14h15--12-
a------------------------------------------------------------|-----------------------------
d------------------------------------------------------------|-----------------------------
 
g--------------------------
d--14--14----14--14-------- 
a--------------------------
d--------------------------
 
(2:37)
 
g-------------
d-------------
a-------------
d--7--7-7--9--
 
(2:39)
 
g------------------------------------------------------------------------------
d------------------------------------------------------------------------------ x3
a------------------------------------------------------------------------------
d--0h2-2--0-0h2-2--0-0h2--0-5-5-5-5-x-9---0h2-2--0-0h2-2--0-0h2--0-7-7-7-7-x-9-
 
(3:09)
 
g-----------------------------------------------------------------------
d-----------------------------------------------------------------------
a-----------------------------------------------------------------------
d--0h2-2--0-0h2-2--0-0h2--0-5-5-5-5-x-9---0h2-2--0-0h2-2--0--2-2-2—14\\-
 
(3:12) saw on vid..
 
g---------------------------------
d--------------------------------- x12
a---------------------------------
d--2-2-2-2--/10--5-5-5h6-0-0-0----
 
(3:46)
 
g---------------------
d--------------------- x3
a---------------------
d--2-2---2-2---2h3p0--
 
(3:55)
 
g-------------
d-------------
a-------------
d--2-2---2-2--
 
(3:58)
 
g-------------
d-------------
a-------------
d--7--7-7--9--
 
(4:00)
 
g------------------------------------------------------------------------------
d------------------------------------------------------------------------------
a------------------------------------------------------------------------------
d--0h2-2--0-0h2-2--0-0h2--0-5-5-5-5-x-9---0h2-2--0-0h2-2--0-0h2--0-7-7-7-7-x-9-
 
 
g------------------------------------------------------------------------------
d------------------------------------------------------------------------------
a------------------------------------------------------------------------------
d--0h2-2--0-0h2-2--0-0h2--0-5-5-5-5-x-9---0h2-2--0-0h2-2--0-0h2--0-7-7---x-7-9-
 
 
g------------------------------------------------------------------------------
d------------------------------------------------------------------------------ x2
a------------------------------------------------------------------------------
d--0h2-2--0-0h2-2--0-0h2--0-5-5-5-5-x-9---0h2-2--0-0h2-2--0-0h2--0-7-7-7-7-x-9-
 
(4:34)
 
g---------------------------------------
d--------------------------------------- x3
a---------------------------------------
d--5--5--5--5--5--9---7--7--7--7--7--9--
 
g---------------------------
d---------------------------
a---------------------------
d--5--5--5--5--5--9--7--5-2-
 
(REST)
 
(4:47) 
 
g----------------------------
d---------------------------- x2
a------------3---------------
d--0--2-2-x----5-5--0-5h6-0--
 
g-------------------------
d-------------------------
a------------3------------
d--0--2-2-x----5-5--0-6b--
 
g----------------------------
d---------------------------- x4
a------------3---------------
d--0--2-2-x----5-5--0-5h6-0--
 
 
(5:09) *Thanks to some of my tooltabs friends for help here
 
(Justin variates the album and live hitting 
extra and leaving out notes here and there) 

                     x3 
g----------------------|---------------------| 
d----------------------|---------------------| 
a----------------------|---------------------| 
d-0h2-22-000-333-555-1-|-0h2-22-000-333-55-1-| 

(5:20) 
                      x3 
g-----------------------|---------------------| 
d-----------------------|---------------------| x4 
a-----------------------|--------------5h7-77-| 
d-0h2-2--3-5-5--0h1-1-1-|-0h2-2--3-5-5--------| 

(6:02)                          
g------------------------| 
d------------------------| x4 
a------------------------| 
d-0h2-22-000-333-555-111-|
 
(6:12)
 
g-------------------------------
d------------------------------- x4
a-------------------------------
d--0-2--x-0--x-3--x-5--x-2-0-2--
 
(6:23) vids..
                         x4                         
g-------------------------|-----   
d-------------------------|-----   
a-------------------------|-----      
d--2-x-x---9-x-10---x-5-5-|--0-- 
 
(REST)
 
(6:46)
 
g--------------------       -----------
d-------------------- x5    -----------
a--------------------       -----------
d--2-2-2-2--2-2-2-2--       --2-2--5\--
 
(6:57)
 
g-------------------------------
d------------------------------- x4
a-------------------------------
d--0-2--x-0--x-3--x-5--x-2-0-2--
 
(7:07)
 
g---------------------------
d--------4b---------5--4--0- x4
a-----2---------0-----------
d--2---------0--------------
 
(7:28) 
g------------------------ 
d------------------------ x3 
a------------------------ 
d--0-222-000-333-555-111- 

g---------------------- 
d---------------------- 
a------------------5--- 
d--0-222-000-333-5---1-  

g------------------------ 
d------------------------ 
a------------------------ 
d--0-222-000-333-555-111- 
 
g---------------------- 
d---------------------- 
a-----------------5---  same note as above 
d--0-222-000-333-5---1- 

g----------------------- 
d----------------------- 
a----------------------- 
d--0-222-000-333-55-1-1-
 
(7:49)
 
g-------------------------------
d------------------------------- x4
a-------------------------------
d--0-2--x-0--x-3--x-5--x-2-0-2--
 
(7:59)
 
g-------------------------
d------------------------- x4
a-------------------------
d--2-x-x---9-x-10---x-5-5-
 
(8:10)
 
g-------------------------------
d-------------------------------
a-------------------------------
d------10---7-\\\---0-2----10---
 
g-----------
d----------- x7
a-----------
d--2-2-2-2--