Band : Tool
Album: Ænima
Track: 3
Song : H.

Part : Bass
Tuning: drop D

Tabbed: Brad Haczynski (updated 2/12/03)
Email : nolan@tooltabs.net
Visit : Tooltabs.net

Legend

nh - natural harmonic

ph - pinch harmonic

pm - palm mute

x - muted string

h - hammer on

p - pull off

\\ - slide down

// - slide up

b - bend

~~ - vibrato

<7> - natural harmonic

x/// - pick scrape (directions same as slide)


0:00  w/ distortion.....preferably a Pro Co RAT
 
G |---------------------------------------|
D |-------7----------------7--------------| x2
A |----------8----------------8---10------|
D |----0----------------0-----------------|
 
0:20  a little faster...
 
G |----------------------------------------|
D |-------7----------------7---------------| x4
A |----------8----------------8---10-------|
D |----0--------------0--0-----------------|
 
0:39 Distortion off...
 
G |---------------------------------------|
D |-------7----------------7--------------| x6
A |----------8----------------8---10------|
D |----0----------------0-----------------|
 
1:09
 
G |-----------------------------------------------|
D |---------7------------------------7------------|
A |------5-----8----3--3--5-------5-----8---x-----|
D |---0------------------------0------------------|
 
G |------------------------------------------------|
D |---------7------------------------7-------------|
A |------5-----8----3--3--5-------5-----8----------|
D |---0------------------------0-------------5-----|
 
1:18
 
G |---------------------------------------------|
D |---------7-----5------------------7----------| x2
A |------5-----8-----7--0--5------5-----8-------|
D |---0------------------------0-------------5--|
 
1:28
 
G |----------------------|
D |---------7------------| x4
A |------5-----8---------|
D |---0-------------5----|
 
1:38 w/ distortion
 
G |---------------------------------------|
D |-------7----------------7--------------| x2
A |----------8----------------8---10------|
D |----0----------------0-----------------|
 
    Distortion off
 
1:48
 
G |--------------5-----5h7p5------------------5-----5p4---|
D |--------7--------7--------7----------7--------7------5-| x3
A |--5--5-----8-------------------5--5-----8--------------|
D |-------------------------------------------------------|
 
2:02
 
G |--------------5-----5h7p5------------------5---5p4--------|
D |--------7--------7--------7----------7-------7-----5p4----|
A |--5--5-----8-------------------5--5-----8--------------5--|
D |----------------------------------------------------------|
 
2:07
 
G |--------------5-----5h7p5------------------5-----5p4---|
D |--------7--------7--------7----------7--------7------5-|
A |--5--5-----8-------------------5--5-----8--------------|
D |-------------------------------------------------------|
 
G |--------------5-----5h7p5------------------------|
D |--------7--------7--------7----------7-----------|
A |--5--5-----8----------------------5-----8--------|
D |-------------------------------0-----------5-----|
 
2:17
 
G |---------------------------------------------|
D |---------7-----5------------------7----------| x2
A |------5-----8-----7--0--5------5-----8-------|
D |---0------------------------0------------5---|
 
2:27
                       x7
G |----------------------|----------------|
D |---------7------------|---------7------|
A |------5-----8---------|------5---------|
D |---0------------5-----|---0--------3b--|
 
2:46 w/ Distortion verified live….he DOES follow guitar
 
G |------------------------|
D |------------------------| x3
A |------------------------|
D |----0---7---3---5-------|
 
G |------------------------|
D |------------------------| 
A |------------------------|
D |----0---7---3---5-/-10--|
 
 
G |-------------------------------------------------|
D |-------------------------------------------------| 
A |-------------------------------------------------|
D |----0---7---3---5-------0---7---3---5----x-10----|
 
 
G |------------------------------------------------------------------|
D |---------------------------------------------7----------7---------|
A |-----------------------------------------------8----------8---10--|
D |----0---7---3---5-------0---7---3---5-----0----------0------------|
                                             
3:13                 3:18
 
G |-----------------|---------------------|
D |-------7---------|------7--------------|
A |----------8------|---------8---10------|
D |----0------------|---0-----------------|
 
 Distortion Off
 
3:28 
 
G |---------------------------------------------------------|
D |---------------------------------------------------------| x2
A |------------------------------------------------------8--|
D |--8--8--8--8-7-5--5--5--5-/--10--10--10--10-9-8--8--8----|
 
3:47
 
G |---------------------------------------------------------|
D |---------------------------------------------------------|
A |-------8------------5---------------10------------8--8---|
D |--8--8----8-7-5--5-----5-/--10--10------10-9-8--8--------|
 
3:56
 
G |----------------------------------------------------------|
D |-----------------------------------------------------8-8--|
A |-------8---8--------5---5---------10----10-------8--------|
D |--8-8----8-----5-5----5----10-10-----10------8-8----------|
 
4:05
 
G |-------------------------------------------------------------------|
D |-----------------------------5-------5-----------------------------|
A |------8---------8----------5-------5----------10------------10-----|
D |--8-8---8---8-8---8----5-5-------5------10-10----10---10-10----10--|
 
4:13
 
G |-------------------------------------------------------------|
D |--------------8----------------------------------5----5---5--|
A |------8---------8---------8---------8----------5--------5----|
D |--8-8---8--8------8---8-8---8---8-8---8----5-5---------------|
 
4:20
 
G |------------------------------------------------|
D |------------------------------------------------|
A |--------10----------10--------------------------|
D |--10-10----10---10-----10----8--888-8-8-8-8-8---|
 
4:24
 
G |-------------------------------------------------------------|
D |-------------------------------------------------------------|
A |-------------------------------------------------------------|
D |--8-8-8-8-8-8-8-8--5-5-5-5-5-5-5-5--10-10-10-10-10-10-10-10--|
 
4:31
 
G |---------------------------------------------------------------------------|
D |---------------------------------------------------------------------------|
A |--------8-----8------------------------------------------------------------|
D |--8-8-8---8-8---8--8-8-8-8-8-8-8--5-5-5-5-5-5-5--10-10-10-10-10-10-10---0--|
 
4:48 Very Fast..
 
G |--------------------------------------------|
D |--------------------------------------------| x8
A |--------------------------------------------|
D |--3p0--0--1p0--0--3p0--0-0--3p0--1p0--3--4--|
 
5:06 Very Fast as well...
 
G |---------------------------|
D |---------------------------| x4
A |---------------------------|
D |--000--777--333--555555-0--|
 
5:16  w/ flange
 
G |-------------------------------------------|
D |------5-------8-7--------------------------|
A |---------6--------8-------8-10---0--3--5---|
D |---0-------------------0-------------------|
 
G |--------------------------------------------|
D |------5-------8-7----------------10-10--12--|
A |---------6--------8-------8-10--------------|
D |---0-------------------0--------------------|
 
5:25
 
G |-------------------------------------------|
D |------5-------8-7--------------------------|
A |---------6--------8-------8-10---0--3--5---|
D |---0-------------------0-------------------|
 
G |--------------------------------------------|
D |------5-------8-7----------------10-10--12--|
A |---------6--------8-------8-10--------------|
D |---0-------------------0--------------------|
 
G |-------------------------------------------|
D |------5-------8-7--------------------------|
A |---------6--------8-------8-10---0--3--5---|
D |---0-------------------0-------------------|
 
G |--------------------------------------|
D |------5-------------------------------|
A |---------6--------8--------10---------|
D |---0----------0--------0-----------0--|
 
Flange off
 
5:46
 
G |---12--12--12--12-/14--14--14--14--14---14---12------14\12--10---|
D |-----------------------------------------------------------------|
A |-----------------------------------------------------------------|
D |-----------------------------------------------------------------|