Band : Tool
Album: Ænima
Track: 7
Song : Hooker with a Penis

Part : Bass
Tuning: drop D

Tabbed: Karl Harmon (faaipdeoiad11)
Email : nolan@tooltabs.net
Visit : Tooltabs.net

Legend

nh - natural harmonic

ph - pinch harmonic

pm - palm mute

x - muted string

h - hammer on

p - pull off

\\ - slide down

// - slide up

b - bend

~~ - vibrato

<7> - natural harmonic

x/// - pick scrape (directions same as slide)


*rest until drums come in*

g---------------------------------
d---------------------------------
a-3h5-5-3h5-5-3h5-5-3h5-5-3-3-3-3- x4
d---------------------------------

g---------------------------------
d-------3-----------3-------------
a-3h5-5---5---3h5-5---5---3-3-3-3- x4
d-----------0-----------0---------

g-----------
d-----------
a----------- x16
d--3-0-0-3--

g---------------------------------
d---------------------------------
a-3h5-5-3h5-5-3h5-5-3h5-5-3-3-3-3- x3
d---------------------------------

g---------------------------------
d-------3-----------3-------------
a-3h5-5---5---3h5-5---5---3-3-3-3-
d-----------0-----------0---------

g-----------
d-----------
a----------- x8
d--3-0-0-3--
                            x3
g-----------------------------|-------------------------------
d-----------------------------|-------------------------------
a-----------------------------|-------------------------------
d-3-0-0-0-0-0-0-3-0-0-0-0-0-0-|-3-0-0-0-0-0-0-3-0-0-0-3-0-0-0-

g--------------------------------------------------------------
d--------------------------------------------------------------
a-3-3-3--------------------------------------------3h5-3h5-3h5-
d--------5-5-5--3p0-0--------3-3-3--5-5-5--3p0-0-0-------------

g------------------------------------------
d------------------------------------------
a-3-3-3------------------------------------
d--------5-5-5--3p0-0--------3-3-3--5-5-5--

g---------------------------------
d---------------------------------
a---------------------------------
d-3-0-0-0-0-0-0-0-0-0-0-0-0-0-0-0-

g--------------------------------------------
d-----------------------------------7-7-7-6--
a--------------3-3-3-2--5-------------------- x4
d-b3-0-0-0-0-0------------0-0-0-0-0----------

g-----------------------------------------------------
d-----------------------------------------------------
a-----------------------------------------------------
d-3-0-0-0-0-0-0-0-0-0-0-0-0-3-0-0-0-0-0-0-0-0-0-0-0-0-

g-----------------------------------------------------
d-----------------------------------------------------
a-----------------------------------------------------
d-3-0-0-0-0-0-0-3-0-0-0-0-0-0-3-0-0-0-0-0-0-3-0-0-0-3-

g-----------------------------------------------------------------
d--------------------------------------------------------3--------
a-3-3-3----------------------------------------------3h5---5p3-h5-
d--------5-5-5--3p0-0-------0-3-3-3--5-5-5--3-p0-0-0--------------

g-------------------------------------------
d-------------------------------------------
a-3-3-3-------------------------------------
d--------5-5-5--3p0-0-------0-3-3-3--5-5-5--

                                   x4
g------------------------------------|-------------
d------------------------------------|-------------
a------------------------------------|-------------
d-0-0-0-3--5-5-5-3--0-0-0-3--6-6-6-5-|-12-\\\------

g--------------------------------------------------------------
d--------------------------------------------------------------
a-------------------------------------------------------3h5-p3-
d-7-7-7-7-0--7--6-6-6-6-0--6--5-5-5-5-0--5--3-3-3-3-0h3--------

g------------------------------------------------------------------
d---------------------------------------------------------3--------
a-----------------------------------------------------3h5---5p3-h5-
d-0-7-7-7-7-0--7--6-6-6-6-0--6--5-5-5-5-0--5--3-3-3-3--------------

g---------------------------------------------------------------
d---------------------------------------------------------------
a-------------------------------------------------------3h5-p3--
d-7-7-7-7-0--7--6-6-6-6-0--6--5-5-5-5-0--5--3-3-3-3-0h3---------

g---------------------------------------------------------------
d---------------------------------------------------------------
a---------------------------------------------------------------
d-0-7-7-7-7-0--7--6-6-6-6-0--6--5-5-5-5-0--5--3-3-3-3-0-/-12-\--

g-------------------------------------------------------------
d-------------------------------------------------------------
a-----------------------------------------------------3h5-3h5-
d-7-7-7-7-0--7--6-6-6-6-0--6--5-5-5-5-0--5--3-3-3-3-0---------

g-----------------------------------------------------
d-----------------------------------------------------
a-----------------------------------------------------
d-7-7-7-7-0--7--6-6-6-6-0--6--0-----3-----5-----7-----

g---------------------------------------
d---------------------------------------
a--------------------------------------- x4
d-3-0-0-3-0-0-6-6-5-0-3-0-0-3-0-0-7-7-6-

g------------------------
d------------------------
a------------------------ x4
d-0-0-0-3-3-3-5-h6-p5-p3-

g---------------------
d---------------------
a--------------------- x7
d-0-0-0-0-0-0-0-0-0-0-

*quick rest*

g|------------------------------------------
d|*-----------------------------------------
a|*---------5-------3h5---------1-------3h5-
d|--0-0-0-0---0-3h5-----0-0-0-0---0-3h5-----

g--------------------------------------------------|
d-------------------------------------------------*|
a---------5-------3h5---------6----------3--------*| (x2)
d-0-0-0-0---0-3h5-----0-0-0-0----0-0-0-0---0-3-h5--|

g---------------------------------
d---------------------------------
a-3h5-5-3h5-5-3h5-5-3h5-5-3-3-3-3- x4
d---------------------------------

g-----------------------------------------
d-----------------------------------------
a----------------------------------------- x4
d-0-0-0-0-0-0-0-0-0-0-0-0-0-0-0-0-0-0-0-0-

g-----------
d-----------
a-----------
d-12-\\\\\--