Band : Tool
Album: Ænima
Track: 11
Song : Pushit

Part : Bass
Tuning: drop D

Tabbed: Brad Haczynski
Email : nolan@tooltabs.net
Visit : Tooltabs.net

Legend

nh - natural harmonic

ph - pinch harmonic

pm - palm mute

x - muted string

h - hammer on

p - pull off

\\ - slide down

// - slide up

b - bend

~~ - vibrato

<7> - natural harmonic

x/// - pick scrape (directions same as slide)


(0:49)
                                           x4
g---------|-------------------------------
d-10-9----|--7p5-----5h7----7-----10p9----
a---------|-{0}----0------0-----0-------0-
d---------|-------------------------------
              {first time only}

(1:02)      tricky timing here....gotta be quick

g-------------------9-----------------
d--7p5----5/7----7-----7-----10p9----- x12
a------0------0-----------0--------0--
d-------------------------------------

(1:37)

g--------------------------
d---7----5----7---10p9----- x3
a-0----0----0--------------
d--------------------------

(1:46)

g--------------------------
d---7----5----7------------
a-0----0---0---------------
d----------------10p9------

(1:48)

g-------------------------------------
d------------------------------------- x4
a-------------------------------------
d--0--7-----0--5-----0--7----0--10p9--

(2:00)

g--------------------------------
d---7p5-----5h7----7-----10p9---- x4
a-0-----0-------0-----0-------0--
d--------------------------------

(2:11)

g-------------------9-----------------
d--7p5----5/7----7-----7-----10p9----- x8
a------0------0-----------0--------0--
d-------------------------------------

(2:34)

g-----------------------
d--7---5---7---10p9----- x3
a-----------------------
d-----------------------

(2:43)

g-----------------------
d--7---5---7------------
a-----------------------
d--------------10p9-----


(2:46)

g-------------------------------------
d------------------------------------- x4
a-------------------------------------
d--0--7-----0--5-----0--7----0--10p9--

(2:57) verified on a vid....

g-------------------------------------------------------------------------------------
d--14-14-14-14----------13-13-13-13----------10-10-10-10----------12-12-12-12--------- x3
a--12-12-12-12-15p14-0--11-11-11-11-15p14-0--8--8--8--8--15p14-0--10-10-10-10-15p14-0-
d-------------------------------------------------------------------------------------

(3:30)

g--------------------------------------------------------
d--14-14-14-14----------13-13-13-13----------10-10-10-10-
a--12-12-12-12-15p14-0--11-11-11-11-15p14-0--8--8--8--8--
d--------------------------------------------------------

g------------------------------------------------------------
d-10--12-12-12-12----14-14-14-14-14-14----13-13-13-13-13-13--
a-8-/-10-10-10-10--/-12-12-12-12-12-12----11-11-11-11-11-11--
d------------------------------------------------------------

g---------------------------------------------------------
d-10----10----10----10------12-----12-----12--------------
a-8-xxx-8-xxx-8-xxx-8-xxx---10-xxx-10-xxx-10-xxx-15p14-0--
d---------------------------------------------------------

(3:53) verified from vid...bass does slide as well.

g-----------------------
d----------------------- x8
a-----------------------
d--3--0--0-3b-/-10---0--

 (hold the bend a little....once you get the timing down it's easy)

(4:04)

g----------------------------
d---------------------------- x4
a----------------------------
d--0-0---3h5b-0---0---3-2-3--


(4:16)

g-----------
d----------- Hold each note about 8 counts
a-----------
d-0----0----

***
At this point strum the strings above the nut with chorus and delay
***

(4:53) (with chorus and delay.....if you don't have a chorus.....it sounds
        pretty good with flange and delay.)

                 x3
g---14---14h15--|-14-
d---------------|----  (bend the G string up while playing this.....)
a-------------- ----
d---------------|----

(5:04) (w/chorus & delay......quiet)

g------------------------9-----------------
d--7p5-------5/7------7----------10p9------ x26
a--------0---------0--------------------0--
d------------------------------------------

(6:23)
g------------------------------
d-7p5-------5p7-------77777777-
a-------0---------0------------
d------------------------------

(6:26)
                                 x4
g--------------------------------|----------------------
d--------------------------------|----------------------
a-----------------7--------------|----------------------
d--7p5--5-5h7---7---7--10p9---0--|-7b--7b--7b---10^9--0-

(6:41)
                                 x3
g--------------------------------|----------------------
d--------------------------------|----------------------
a-----------------7--------------|----------------------
d--7p5--5-5h7---7---7--10p9---0--|-7b--7b--7b---10^9--0-

(6:53)

g--------------------------------
d-------------------------------- x4
a-----------------7--------------
d--7p5--5-5h7---7---7--10p9---0--

(7:05)

g------------------------------|----------------------
d------------------------------|----------------------
a---------------7--------------|----------------------
d-7p5---5h7---7-----10-10-10-0-|-7b--7b--7b---10^9--0-

(7:11)

g--------------------------------
d-------------------------------- x12
a-----------------7--------------
d--7p5--5-5h7---7---7--10p9---0--

(7:45)

g------------------------------
d------------------------------
a---------------------10-10-10-
d-7p5---5h7---7/---10-10-------

(7:48)

g------------------------------|-----------------------------|-----------------------------
d------------------------------|-----------------------------|----------------------------- x3
a----------------7-------------|---------------7-------------|----------------7------------
d-7p5--5-5h7---7---7--10p9--0--|-7p5---5h7---7----10-10-10-0-|-7p5--5-5h7---7---7--10p9--0-

(8:14)

g--------------------------------
d--------------------------------
a-----------------7--------------
d--7p5--5-5h7---7---7--10p9---0--

(8:17)

g-----------------------------------
d-----------------------------------
a---------------7--------00000000---
d-7p5---5h7---7---7---777777777777/-

(8:22)

g--------------------------
d-------------------------- x3
a-----------------------5--
d---77---22---55---00---0--

(8:54)

g-------------------------------------
d-------------------------------------
a-----------------------5---55555....-
d---77---22---55---00---0-00----------

(9:02)

g---------------------
d---------------------
a---------------------
d---77---22---/10-10b-

(9:06)


g-----------------------
d----------------------- x8
a-----------------------
d--3--0--0-3b-/-10---0--

(9:18)

g----------------------------
d---------------------------- x4
a----------------------------
d--0-0---3h5b-0---0---3-2-3--

(9:30)

g-----------------------------
d----------------------------- x4
a-----------------------------
d--0---8/12-12-10-10--8-10-8--

(9:42)
                   x2
g------------------|---
d------------------|---
a------------------|---
d--7---0---10---0--|-8-