Band : Tool
Album: Ænima
Track: 1
Song : Stinkfist

Part : Bass
Tuning: drop D

Tabbed: Brad Haczynski (updated 6/21/03)
Email : nolan@tooltabs.net
Visit : Tooltabs.net

Legend

nh - natural harmonic

ph - pinch harmonic

pm - palm mute

x - muted string

h - hammer on

p - pull off

\\ - slide down

// - slide up

b - bend

~~ - vibrato

<7>- natural harmonic

x/// - pick scrape (directions same as slide)


 
Updated 10/11/02 ....verified finally from vids.
 
0:25
g-----|-----------
d-----|-----------  x7
a-----|---5-------
d--2--|------2----
 
0:36
g----------------
d---------------- x4
a----------------
d--0--2----0--2--
 
0:47
g-----------
d-------2---  x8
a-----------
d--0--2-----
 
0:59  Does NOT follow guitar pattern….listen close… 
        x4                  x3
g---------|---------|---------|---------
d---------|---------|---------|---------
a---------|--5------|---------|----5----
d--0--2-2-|-----2-2-|--0--2-2-|-------2-
 
1:09 (chorus)
g-------------------------------------
d-------------------------------------
a-------------------------------------
d--2--2--/--10--10--0--12-0--x-x-2h3--
 
g-------------------------------------
d-------------------------------------
a-------------------------------------
d--2--2--/--10--10--12-0-12--x-x-2h3--
 
g-------------------------------------
d-------------------------------------
a-------------------------------------
d--2--2--/--10--10--0--12-0--x-x-2h3--
 
g-------------------------
d-------------------------
a-------------------------
d--2--2--/--10--10--12----
 
1:26
g---------------
d---------------  x7
a-------5-------
d-2--------2----
 
1:37
g-----------------
d----------------- x4
a-----------------
d--0--2----0--2---
 
1:49
g-----------
d-------2---  x8
a-----------
d--0--2-----
 
2:00
        x4                  x3
g---------|---------|---------|---------
d---------|---------|---------|---------
a---------|--5------|---------|----5----
d--0--2-2-|-----2-2-|--0--2-2-|-------2-
 
 
2:11  (chorus)
g-------------------------------------
d-------------------------------------
a-------------------------------------
d--2--2--/--10--10--0--12-0--x-x-2h3--
 
g-------------------------------------
d-------------------------------------
a-------------------------------------
d--2--2--/--10--10--12-0-12--x-x-2h3--
 
g-------------------------------------
d-------------------------------------
a-------------------------------------
d--2--2--/--10--10--0--12-0--x-x-2h3--
 
g-------------------------
d-------------------------
a-------------------------
d--2--2--/--10--10--12----
 
rest...
 
2:33
g-----------------------------------------------
d-0---------3---------0h3---------3---------3p0- x3
a-----------------------------------------------
d----0-2-22----0-2-22------0-2-22----0-2-22-----
 
2:56  saw this on every vid...just climbing the neck.
g--------------------
d-------------------- x4
a--------------------
d--0-2-3h4—-4-5-6h7--
 
3:02
g----------------------------------------
d-------3--------0h3--------3--------3p0-
a----------------------------------------
d-0-222----0-222------0-222----0-222-----
 
3:07
g--------------------
d-------------------- x4
a--------------------
d--0-2-3h4—-4-5-6h7--
 
 
3:13
g----------------------------------------
d-------3--------0h3--------3--------3p0-
a----------------------------------------
d-0-222----0-222------0-222----0-222-----
 
3:19
g--------------------
d-------------------- x4
a--------------------
d--0-2-3h4—-4-5-6h7--
 
3:24 (gradually get louder over the 4 bars)
g--------------------
d-------------------- x4
a--------------------
d--0-2-3h4—-4-5-6h7--
 
3:30 JC loves octaves
g-------------------------------------------------------------------------
d--------4-----------------4---------------------------------------------- x2
a-------------------------------------------------------------------------
d---2-2-----2-2---0--2-2-------2-2--//-7--9-99--7--9-99--7--9-99--7--9\\--
 
3:51
g----------------------------------------
d-----------------------------2---2-------- x2
a----------------------------------------
d--10--10--10/12--12-0-9-0--2---2---2-//-
 
4:02
g----------------------
d----------------------
a----------------------
d--10-10-/-12--12-0-9--
 
4:06 (watch for the slightly tricky timing here)
g----2---/5----------------------------
d--2---------5—6p5--------------------- x2
a------------------6---3-3---5-5---2---
d--------------------------------------
 
4:18
g----------------------------------------------
d---------------------------------------------- 
a----------------------------------------------
d--2--x-xx--2--x-xx--2--xx-xx--5-55--7-77--4---
 
g----------------------------------------------
d---------------------------------------------- 
a----------------------------------------------
d--2—-xx-xx--2--x-xx--2--xx-xx--5-55--7-77--4---
 
 
4:32 (chorus)
g-------------------------------------
d-------------------------------------
a-------------------------------------
d--2--2--/--10--10--0--12-0--x-x-2h3--
 
g-------------------------------------
d-------------------------------------
a-------------------------------------
d--2--2--/--10--10--12-0-12--x-x-2h3--
 
g-------------------------------------
d-------------------------------------
a-------------------------------------
d--2--2--/--10--10--0--12-0--x-x-2h3--
 
g-------------------------
d-------------------------
a-------------------------
d--2--2--/--10--10--12----
 
4:49 (Outro)
g-------------------------------
d----3----3----3----2----2----2- x2
a-------------------------------
d--3----3----3----2----2----2---
 
g-----------
d----3----3-
a-----------
d--3----3---