Band : Tool
Album: Lateralus
Track: 11
Song : Reflection

Part : Bass
Tuning: drop D

Tabbed: Brad Haczynski
Email : nolan@tooltabs.net
Visit : Tooltabs.net

Legend

nh - natural harmonic

ph - pinch harmonic

pm - palm mute

x - muted string

h - hammer on

p - pull off

// - slide down

\\ - slide up

b - bend

~~ - vibrato

<7> - natural harmonic

x/// - pick scrape (directions same as slide)


*rest for 8 bars*

0:21
g----------------------2------0--
d--4-----------------------------
a--2--2-2--0h2-2-2-2-------3----- x60
d--------------------------------

3:21
(with distortion) Saw this live....Adam does bends, Justin does the hammer/pull offs
(hammer the notes hard to get it right)

g----------------------------------------------------------
d----------------------------------------------------------
a--2...h3p2-p0---2...h3p2-p0---2...h3p2-p0----2...h3p2-p0--
d----------------------------------------------------------

3:43
g----------------------2------0--
d--4-----------------------------
a--2--2-2--0h2-2-2-2-------3----- x14
d--------------------------------


4:20 (Trust me this is what he does...it takes timing....listen with good headphones)

g-----------------------------------------------
d-----4------7-----7--------12----------17------
a--2----/-5-----5-----/-10------/15--15-----15--
d-----------------------------------------------

4:25  (there are TWO open D's hear...listen)
                  x7
g------------------|------------
d------------------|------------
a------------------|------------
d--9--9-0--0-7/10--|--9--9--0---

4:46  (Saw this on several vids...check out Wilkes barre for the best angle...he never goes to the C...)
      the variation takes practice!!!
                             x3
g---------------------2----0--|------------------------------
d--4--------------------------|--4----------------4-4---------
a--2--2-2--0h2-2-2-2-----3----|--2--2-2--0h2-2-2--2-2-0h2-2-2- (x4)
d-----------------------------|------------------------------

g----------------------2------0--
d--4-----------------------------
a--2--2-2--0h2-2-2-2-------3----- x4
d--------------------------------

*rest for 9 bars*

6:00
(with distortion)
g----------------------------------------------------------
d----------------------------------------------------------
a--2...h3p2-p0---2...h3p2-p0---2...h3p2-p0----2...h3p2-p0--
d----------------------------------------------------------

6:22
g----------------------2------0--
d--4-----------------------------
a--2--2-2--0h2-2-2-2-------3----- x8
d--------------------------------


6:43 (Straight off the mansfield video...check yourselves....)

g--------------------------------------------
d-----4-----7---7------12----------17--------
a--2----/-5---5---/-10-----/15--15----15----- x4
d--------------------------------------------

7:04             x7
g------------------|------------
d------------------|------------
a------------------|------------
d--9--9-0--0-7/10--|--9--9--0---


7:25
g-------------------------
d-------------------------
a------------------------- x12
d--7h9-9-9-7h9-9-9-7h9-9--

7:56
g---------------------------
d---------------------------
a----9-9---9-9-------------- x4
d--7-9-9-7-9-9-9-/12-14p12--


8:06 (In many vids, Justin goes Ballistic hear throwing in lots of little variations....I will
      not tab those out...just know this is played on the low D string)

g-------------------------
d-------------------------
a------------------------- x7
d--7h9-9-9-7h9-9-9-7h9-9--


*rest for 1 bar*

8:27 (This was the biggest Shocker of them all.....Listen carefully, Justin is Doing the Main Riff here...he does
      not follow adam on the guitar part... you can barely hear it on the album version and is easier to hear in
      a live version.....Thanks to embrace for pointing this out to me)

g----------------------2------0--
d--4-----------------------------
a--2--2-2--0h2-2-2-2-------3----- x8
d--------------------------------


8:48 Just a variation from before...and its slower..I added the lyrics to help with the timing

g---------------------------------------------------------------------
d----4-------------7---7-----------12----12----------17-------17-----
a--2----/5-------5---5--------/-10----10---------/15----15-------15-- x2
d---------------------------------------------------------------------
..so crucify   ..before its    ...leave behind    ..negative...cynical


9:10 variation...listen for those chords...they are hard to hear..

g-----------------------------------------------------------------------------
d----4--------4------4-------4-------4--------4--------12-------------17------
a--2----/5----2----2---3-----2-----2----/5----2---/-10-----/15---15------15---
d-----------------------------------------------------------------------------

9:20        x4                x4
g--------------|----------------
d--------------|----------------
a--------------|----------------
d--9-9-0-------|--9-9-0-0-7/10--

9:40
g-----------------------------------
d-----------------------------------
a----------------------------------- x4
d--999-7---0-999-7---0-9-7-9-10-----

9:50                      x3
g--------------------------|----------------
d--------------------------|----------------
a--------------------------|----------------
d--9-9-0--0-5-5-5--0-7/10--|--9-9-0--0-5----