Band : Tool
Album: Opiate
Track: 1
Song : Sweat

Part : Bass
Tuning: drop D

Tabbed: Brad Haczynski
Email : nolan@tooltabs.net
Visit : Tooltabs.net

Legend

nh - natural harmonic

ph - pinch harmonic

pm - palm mute

x - muted string

h - hammer on

p - pull off

\\ - slide down

// - slide up

b - bend

~~ - vibrato

<7>- natural harmonic

x/// - pick scrape (directions same as slide)


 
w/ chorus
 
 
                 x4
g-----------------|---------------------------------------
d-----------------|---------------------------------------
a-----------------|---------------------------------------
d--1-0-1-3-4-3-0--|--1----1-1-1-1----1-0----1-0-0----0----
 
                                                    x2
g--------------------------|--------------------------|------------------
d--------------------------|--------------------------|------------------
a--------------------------|--------------------------|------------------
d--2--0-2-0-2--2--0-3-0-2--|--2--0-1-0-2--2--0-3-0-2--|--0-5--5-5h7-5p0--
 
                         x3
g--------------------------|------------------
d--------------------------|------------------ (x2)
a--------------------------|------------------
d--2--0-1-0-2--2--0-3-0-2--|--0-5--5-5h7-5p0--
  
 
g-------------------------------
d------------------------------- x4
a-------------------------------
d--2--0-2-0-2--0-5--5-5h7--5p0--
 
 
g--7--7-7--7-7--10-101010-9---7--7-7--7-7--5--5-5--7--7-7--7-7--10-101010-9--7--7-7--7-7—-11-11-----
d--7--7-7--7-7—-10-101010-9---7--7-7--7-7--5--5-5--7--7-7--7-7--10-101010-9--7--7-7--7-7--11-11-----
a--5--5-5--5-5---8--8-8-8-7---5--5-5--5-5--3--3-3--5--5-5--5-5---8--8-8-8-7--5--5-5--5-5---9—-9-----
d-----------------------------------------------------------------------------------------------11--
 
                         x3
g--------------------------|------------------
d--------------------------|------------------ x2
a--------------------------|------------------
d--2--0-1-0-2--2--0-3-0-2--|--0-5--5-5h7-5p0--
 
g-------------------------------
d------------------------------- x4
a-------------------------------
d--2--0-2-0-2--0-5--5-5h7--5p0--
 
                                                 x3
g--7--7-7--7-7—-10-101010-9---7--7-7--7-7--5--5-5--|--7--7-7--7-7—-10-101010-9--7--7-7--7-7--11-11-----
d--7--7-7--7-7—-10-101010-9---7--7-7--7-7--5--5-5--|--7--7-7--7-7—-10-101010-9--7--7-7--7-7--11-11-----
a--5--5-5--5-5---8--8-8-8-7---5--5-5--5-5--3--3-3--|--5--5-5--5-5---8--8-8-8-7--5--5-5--5-5---9—-9-----
d--------------------------------------------------|-----------------------------------------------11--
 
g------------------------------------
d------------------------------------
a------------------------------------
d--2--------2--------2--------3--1---
 
 
 
I personally like the muting one better (2nd one) and its what I think Paul is doing.... but either way is ok…
 
g-------------------------------------              g------------------------------------- 
d------------------------------------- x2    OR     d------------------------------------- x2
a-------------------------------------              a-------------------------------------
d--2-222222-2-222222-2-222222-3-x-1---              d--2-xxxxxx-2-xxxxxx-2-xxxxxx-3-x-1---
     pm - |   pm - |   pm - |
 
 
g-----------------
d----------------- x4
a-----------------
d--1-0-1-3-4-3-0--
 
 
g-------------------------------------              g------------------------------------- 
d------------------------------------- x2    OR     d------------------------------------- x2
a-------------------------------------              a-------------------------------------
d--2-222222-2-222222-2-222222-3-x-1---              d--2-xxxxxx-2-xxxxxx-2-xxxxxx-3-x-1---
     pm - |   pm - |   pm - |
 
                x4
g-----------------|--------------------------
d-----------------|--------------------------
a-----------------|--------------------------
d--1-0-1-3-4-3-0--|--1----1-1-1-1--\\\\\\\\--
 
g-------------------------------
d------------------------------- x4
a-------------------------------
d--2--0-2-0-2--0-5--5-5h7--5p0--
 
 
d--7--7-7--7-7—-10-101010-9---7--7-7--7-7--5--5-5--
d--7--7-7--7-7—-10-101010-9---7--7-7--7-7--5--5-5-- x3
a--5--5-5--5-5---8--8-8-8-7---5--5-5--5-5--3--3-3--
d--------------------------------------------------
 
 
g--7--7-7--7-7—-10-101010-9--7--7-7--7-7--6-6---6-6---6-6---------
d--7--7-7--7-7—-10-101010-9--7--7-7--7-7--4-4---4-4---4-4------7--
a--5--5-5--5-5---8--8-8-8-7--5--5-5--5-5--------—--------------5--
d---------------------------------------------4-----4-----4--x-0--