Band : Tool
Album: Opiate
Track: 2
Song : Hush

Part : Bass
Tuning: drop D

Tabbed: Nolan Venhola (re-done by Brad Haczynski 11/17/02)
Email : nolan@tooltabs.net
Visit : Tooltabs.net

Legend

nh - natural harmonic

ph - pinch harmonic

pm - palm mute

x - muted string

h - hammer on

p - pull off

\\ - slide down

// - slide up

b - bend

~~ - vibrato

<7>- natural harmonic

x/// - pick scrape (directions same as slide)


 
w/ chorus
 
g----------------------------7h9--
d------xx-7h9--------------------- x6
a-------------xx-7h8-x-5h7-x------
d--7h9----------------------------
 
g----------4----------------------
d--------------------------------- x3
a—-0h2-2-0-------------------5----
d------------xx-2h3p2--0--0-------
 
g----------4---------------------
d--------------------------------
a--0h2-2-0-----------------------
d------------xx-3-3-3-2--2--0----
 
g----------4----------------------
d--------------------------------- x7
a—-0h2-2-0-------------------5----
d------------xx-2h3p2--0--0-------
 
g----------4---------------------
d--------------------------------
a--0h2-2-0-----------------------
d------------xx-3-3-3-2--2--0----
 
g------------------------------------
d------------------------------------ x4
a------------------------------------
d--9-9--9-9--9-x-9-xx-7-7-7--7--7-7--
 
g----------4----------------------
d--------------------------------- x3
a—-0h2-2-0-------------------5----
d------------xx-2h3p2--0--0-------
 
g----------4---------------------
d--------------------------------
a--0h2-2-0-----------------------
d------------xx-3-3-3-2--2--0----
 
g----------4----------------------
d--------------------------------- x7
a—-0h2-2-0-------------------5----
d------------xx-2h3p2--0--0-------
 
g----------4---------------------
d--------------------------------
a--0h2-2-0-----------------------
d------------xx-3-3-3-2--2--0----
 
g------------------------------------
d------------------------------------ x4
a------------------------------------
d--9-9--9-9--9-x-9-xx-7-7-7--7--7-7--
 
g--------------------
d-------------------- x4
a--2-x-0-------------
d---------x-2/3—xx---
 
g------------------------------5-5-5--
d------------------------------------- x4
a-------------------------------------
d--3-2-2--3-2-2--3-2-2--3-2-2---------
 
g----------4----------------------
d--------------------------------- x7
a—-0h2-2-0-------------------5----
d------------xx-2h3p2--0--0-------
 
g----------4---------------------
d--------------------------------
a--0h2-2-0-----------------------
d------------xx-3-3-3-2--2--0----
 
g-----------------------9---
d-------------------7---7--- x6
a-------------------0-------
d--9-(trill pick)-----------
 
g------------------------
d------------------------
a------------------------
d--9-(trill pick)--------