Band : Tool
Album: Opiate
Track: 5
Song : Jerkoff

Part : Bass
Tuning: drop D

Tabbed: Brad Haczynski (Updated 1/8/03)
Email : thedad2000@aol.com
Visit : Tooltabs.net

Legend

nh - natural harmonic

ph - pinch harmonic

pm - palm mute

x - muted string

h - hammer on

p - pull off

\\ - slide down

// - slide up

b - bend

~~ - vibrato

<7>- natural harmonic

x/// - pick scrape (directions same as slide)


 
w/ chorus
 
(0:17)
 
g----------/9------------/12----------
d-------------------------------------
a-------------------------------------
d---8/7-----------8/7-----------------
 
(0:22)
                     x3
g-----------------------------|---------------------------
d-----------------------------|---------------------------
a-----7---8--7-----7---8p7----|-----7---8--7-----7---8p7--
d--7----7-------7----7-----8--|--7----7-------7----7------
 
(0:34)
 
g-----------------------------------------------------------------
d-----------------------------------------------------------------
a-----------------------------------------------------------------
d--8--7-7-7-7-7-7-7-7-7-7-7-7-7--8-7-7-7-7-7-7-7-7-7-7-7-7-7-7-7--
 
(0:45)
 
g------------------------------
d------------------------------ x4
a------------------------------
d--12--0-0-12-0-12-0-12---3-3--
 
(0:56)
 
g--------------------------------------
d-------------------------------------- x4
a--------------------------------------
d--5-555-5-555-5-555--8-888-3-333-333--
 
(1:08)
 
g------------------------------
d------------------------------ x4
a------------------------------
d--0-5--0-5--0-5--0-8--0-33-3--
 
(1:19)
 
                     x3
g-----------------------------|---------------------------
d-----------------------------|---------------------------
a-----7---8--7-----7---8p7----|-----7---8--7-----7---8p7--
d--7----7-------7----7-----8--|--7----7-------7----7------
 
(1:31)
 
g-----------------------------------------------------------------
d-----------------------------------------------------------------
a-----------------------------------------------------------------
d--8--7-7-7-7-7-7-7-7-7-7-7-7-7--8-7-7-7-7-7-7-7-7-7-7-7-7-7-7-7--
 
(1:42)
 
g------------------------------
d------------------------------ x4
a------------------------------
d--12--0-0-12-0-12-0-12---3-3--
 
(1:53)
 
g--------------------------------------
d-------------------------------------- x4
a--------------------------------------
d--5-555-5-555-5-555--8-888-3-333-333--
 
(2:05)
 
g------------------------------
d------------------------------ x4
a------------------------------
d--0-5--0-5--0-5--0-8--0-33-3--
 
(2:16)
 
g-----------------------------
d-----------------------------
a-----7---8--7-----7---8p7----
d--7----7-------7----7-----8--
 
(2:19)*
 
g---------------------------------------------------------
d-----2---3--2-----2---3p2--------3---4--3-----3---4p3----
a---------------------------------------------------------
d--2----2-------2----2------4--3----3-------3----3-----4--
 
g---------------------------------------------------------
d-----2---3--2-----2---3p2--------3---4--3-----3---4p3----
a---------------------------------------------------------
d--2----2-------2----2------4--3----3-------3----3-----6--
 
g-------------------------------------------------------------
d-----5---6--5-----5---6p5--------5---6--5-----5---6p5--------
a--------------------------------------------------------1-3--
d--5----5-------5----5------6--5----5-------5----5------------
 
(2:37)
 
g--5-5-5-5-5--7-7--8-8-8-8-8-8-8--7-7-7---
d--5-5-5-5-5--7-7—-5-5-5-5-5-5-5--7-7-7--- x5
a--3-3-3-3-3--5-5--6-6-6-6-6-6-6--5-5-5---
d-----------------------------------------
 
g--5-5-5-5-5--7-7--8-
d--5-5-5-5-5--7-7--5-
a--3-3-3-3-3--5-5--6-
d--------------------
 
(3:10)
 
g------------------------------
d------------------------------ x4
a------------------------------
d--0-5--0-5--0-5--0-8--0-33-3--
 
(3:22)
 
g-------------------------
d------------------------- x8
a-------------------------
d--5--8--3--0--3p0—3h5----
 
(3:44)
 
g------------------------------
d------------------------------ x7
a------------------------------
d--0-5--0-5--0-5--0-8--0-33-3--
 
g------------------------------
d------------------------------
a------------------------------
d--0-5--0-5--0-5--0-5--0-55-5--