Band : Tool
Album: Opiate
Track: 6
Song : Opiate

Part : Bass
Tuning: drop D

Tabbed: Brad Haczynski (updated 11/17/02)
Email : nolan@tooltabs.net
Visit : Tooltabs.net

Legend

nh - natural harmonic

ph - pinch harmonic

pm - palm mute

x - muted string

h - hammer on

p - pull off

\\ - slide down

// - slide up

b - bend

~~ - vibrato

<7>- natural harmonic

x/// - pick scrape (directions same as slide)


 
g-----(5)-----------------------------------
d---------(5)-------------------------------
a---------------0--2------0--2------0--2----
d-------------------------------------------
 
(0:17) a little tricky timing wise at first...
 
g----------4----------1--------2------
d---------------0-2-2------3-3-------- x24
a--2-2-2-2----------------------------
d-------------------------------------
 
(1:27) Gotta Love the power chords on bass....
 
                   x2                         x2
g--7--7------7--7----|--(5)--|--7--7------7--7--|---(5)------
d--7--7------7--7----|-------|--7--7------7--7--|-------(5)--
a--5--5------5--5----|-------|--5--5------5--5--|------------
d--0--0------0--0----|-------|--0--0------0--0--|------------
                              _______________________________
                                             |
                                             x3
 
(1:51)
 
g--7--7------7--7------14-14--14-14--14-14--14--
d--7--7------7--7------12-12--12-12--12-12--12-- x3
a--5--5------5--5-------------------------------
d--0--0------0--0-------------------------------
 
g--7--7------7--7------14-14--14-14--14b-14b--14\\--
d--7--7------7--7------12-12--12-12--12b-12b--12\\--
a--5--5------5--5-----------------------------------
d--0--0------0--0-----------------------------------
 
 
(2:02)
 
g----------4----------1--------2------
d---------------0-2-2------3-3-------- x8
a--2-2-2-2----------------------------
d-------------------------------------
 
 
 
 
(2:32)
                     x4                           x7
g-----(5)--------------|-----(5)--------------------|-----(5)------4-4-4-4-4--
d---------(5)----------|---------(5)----------------|---------(5)--4-4-4-4-4--
a---------------2--0---|--------------2-2-2-2-2--0--|--------------2-2-2-2-2--
d----------------------|----------------------------|-------------------------
                                      pm - - -|
 
(3:09)
 
g----------4----------1--------2------
d---------------0-2-2------3-3-------- x12
a--2-2-2-2----------------------------
d-------------------------------------
 
(3:44)
 
                      x2                         x2
g--7--7------7--7----|--(5)--|--7--7------7--7--|---(5)------
d--7--7------7--7----|-------|--7--7------7--7--|-------(5)--
a--5--5------5--5----|-------|--5--5------5--5--|------------
d--0--0------0--0----|-------|--0--0------0--0--|------------
                              _______________________________
                                            |
                                            x3
(4:09)
 
g--7--7------7--7------14-14--14-14--14-14--14--
d--7--7------7--7------12-12--12-12--12-12--12-- x3
a--5--5------5--5-------------------------------
d--0--0------0--0-------------------------------
 
g--7--7------7--7------14-14--14-14--14b-14b--14\\--
d--7--7------7--7------12-12--12-12--12b-12b--12\\--
a--5--5------5--5-----------------------------------
d--0--0------0--0-----------------------------------
 
(4:21)
 
g---------------------------------------
d--------------------------------------- x 24  REALLY FAST!!!!
a--12-12-12-12-12-12-12-12-12-12-12-/14-
d—-12-12-12-12-12-12-12-12-12-12-12-----
 
(4:57)
 
g---------------------
d-----------12-12-12-- x8
a—-12-12-12-12-12-12--
d—-12-12-12-----------
 
(5:09)
 
g------------
d------------ x7
a--12-12-12--
d--12-12-12--