Band : Tool
Album: Salival
Track: 6
Song : You Lied

Part : Bass
Tuning: STANDARD

Tabbed: Davide Giordano
Email : nolan@tooltabs.net
Visit : Tooltabs.net

Legend

nh - natural harmonic

ph - pinch harmonic

pm - palm mute

x - muted string

h - hammer on

p - pull off

\\ - slide down

// - slide up

b - bend

~~ - vibrato

<7> - natural harmonic

x/// - pick scrape (directions same as slide)


(w/chorus)

g-11-----11------11------11------11-----------
d---12------12------12------12------12-----12- x11
a------14------14-----14-------14------14-----
e---------------------------------------------

g-11-----11------11------------------------------
d---12------12------12---------------------------
a------14------14-----14--14-14-12-12-11-11-9/s--
e------------------------------------------------

(chorus off)

g---------------------------------------------
d--------------------------------------------- x3
a-2---2--0h2-2-2-2--0h2-2-2-2--0h2-2-2-3-2-0--
e---------------------------------------------

g---------------------------------------------
d-----------------------0-2-3-2-0--------------
a-2---2--0h2-2-2-2--0h2-----------0h2--2-3-2-0
d---------------------------------------------

g---------------------------------------------
d--------------------------------------------- x3
a-2---2--0h2-2-2-2--0h2-2-2-2--0h2-2-2-3-2-0--
e---------------------------------------------

g----------------------------------------------
d-----------------------0-2-3-2-0--------------
a-2---2--0h2-2-2-2--0h2-----------0h2--2-3-2-0-
d----------------------------------------------

g------------------------------------
d------------------------------------ x2
a-14-14-14-14-14-14-14-14-14-14-14-14
e------------------------------------

g-11-----11------11------11------11-----------
d---12------12------12------12------12-----12- x2
a------14------14-----14-------14------14-----
e---------------------------------------------

g------------------------------------
d------------------------------------ x3
a-14-14-14-14-14-14-14-14-14-14-14-14
e------------------------------------

g------------------------------------------
d-------------14-14-14-14----------9-9-9-9-
a-12-12-12-12--------------7-7-7-7---------
e------------------------------------------

g--------------------------------------
d-------------------------------------- x3
a-\14-14-14-14-14-14-14-14-14-14-14-14-
e--------------------------------------

g------------------------------------------
d-------------14-14-14-14----------9-9-9-9-
a-12-12-12-12--------------7-7-7-7---------
e------------------------------------------

g---------------------------------------------
d---------------------------------------------
a-2---2--0h2-2-2-2--0h2-2-2-2--0h2-2-2-3-2-0--
e---------------------------------------------

g---------------------------------------------
d-----------------------0-2-3-2-0--------------
a-2---2--0h2-2-2-2--0h2-----------0h2--2-3-2-0
d---------------------------------------------

g---------------------------------------------
d--------------------------------------------- x5
a-2---2--0h2-2-2-2--0h2-2-2-2--0h2-2-2-3-2-0--
e---------------------------------------------

g----------------------------------------------
d-----------------------0-2-3-2-0--------------
a-2---2--0h2-2-2-2--0h2-----------0h2--2-3-2-0-
d----------------------------------------------

g-------------------------------------
d------------------------------------- x2
a-14-14-14-14-14-14-14-14-14-14-14-14-
e-------------------------------------

						x2
g-11-----11------11------11------11-----------
d---12------12------12------12------12-----12-
a------14------14-----14-------14------14-----
e---------------------------------------------

g-------------------------------------
d------------------------------------- x3
a-14-14-14-14-14-14-14-14-14-14-14-14-
e-------------------------------------

g------------------------------------------
d-------------14-14-14-14----------9-9-9-9- x1
a-12-12-12-12--------------7-7-7-7---------
e------------------------------------------

g--------------------------------------
d-------------------------------------- x3
a-\14-14-14-14-14-14-14-14-14-14-14-14-
e--------------------------------------

g------------------------------------------
d-------------14-14-14-14----------9-9-9-9-
a-12-12-12-12--------------7-7-7-7---------
e------------------------------------------

g---------------------------------------------
d--------------------------------------------- x9
a-2---2--0h2-2-2-2--0h2-2-2-2--0h2-2-2-3-2-0--
e---------------------------------------------

g----------------------------------------------
d-----------------------0-2-3-2-0--------------
a-2---2--0h2-2-2-2--0h2-----------0h2--2-3-2-0-
d----------------------------------------------

g--------------------------------------------------
d-------------------------------------------------- x6
a-3p2-2-2--2-0h2-2-2-0--3p2-2-2--2-0h2-2-0h2-2-0h2-
e--------------------------------------------------

g--------------------------------------------------
d-------------------------------------------------- x4
a-3p2-2-2---2-0----- 2-0-----3p2-2-2--2-0h2-2-2-0--
e----------------1-0-----1-0-----------------------

g------------------------------
d------------------------------
a-3p2-2-2--2-2-0-----2-0-------
e----------------1-0-----1-0---

g------------------------------------------------
d------------------------------------------------ x2
a-2--2--0h2-2-2-2--2-0h2-2-2-2--2-2-0----2-0-----
e-------------------------------------1-0----1-0-

g-------------------------
d-------------------------
a-2--2--0h2-2-2-2--3-3----
e-------------------------

g----------------------------
d----------------------------
a-0h2-----2--2-0h2-2-2-2-3-3-
e----------------------------

g-------------------------------------
d-------------------------------------
a-0h2-----2--2-0h2-2-2-2-3-3----3-3b--
e-------------------------------------

g----------------------------
d----------------------------
a-0h2-----2--2-0h2-2-2-2-3-3-
e----------------------------