Band : Tool
Album: Undertow
Track: 8
Song : 4

Part : Bass
Tuning: drop D

Tabbed: Brad Haczynski (updated 1/08/03)
Email : thedad2000@aol.com
Visit : Tooltabs.net

Legend

nh - natural harmonic

ph - pinch harmonic

pm - palm mute

x - muted string

h - hammer on

p - pull off

\\ - slide down

// - slide up

b - bend

~~ - vibrato

<7>- natural harmonic

x/// - pick scrape (directions same as slide)


 
(0:22)
 
g--------------------------------------------
d--------------------------------------------
a--------------------------------------------
d--0h2-2-x-0h2-2-x--33-0--0h2-2-x-0h2-2-x--3-
 
g---------------------------------------------
d---------------------------------------------
a---------------------------------------------
d--0h2-2-x-0h2-2-x--33-0--0h2-2-x-///--15\\-3-
 
g--------------------------------------------
d--------------------------------------------
a--------------------------------------------
d--0h2-2-x-0h2-2-x--33-0--0h2-2-x-0h2-2-x--3-
 
g-----------------------------------------------
d-----------------------------------------------
a-----------------------------------------------
d--0h2-2-x-0h2-2-x--33-0--0h2-2-x-0h2-22-/--10b-
 
(0:48)
 
g--------------------------------------------
d--------------------------------------------
a--------------------------------------------
d--0h2-2-x-0h2-2-x--33-0--0h2-2-x-0h2-2-x--3-
 
g---------------------------------------------
d---------------------------------------------
a---------------------------------------------
d--0h2-2-x-0h2-2-x--33-0--0h2-2-x-///--15\\-3-
 
g-----------------------------------------------
d-----------------------------------------------
a-----------------------------------------------
d--0h2-2-x-0h2-2-x--33-0--0h2-2-x-0h2-2-x3-3-3-
 
g---------------------------------------------------------
d--------------------------------------------------------
a---------------------------------------------------------
d--0h2-2-x-0h2-2-x--33-0--0h2-2-x-//////////-\\\\\\\\\\\--
 
(1:10)
 
g--------------------------------------------------------
d--------------------------------------------------------
a--------------------------------------------------------
d---0h2-22-2--0h2p0-3p0-2p0---0h2-2-x-0h2-2-xx--3-3-3----
 
g--------------------------------------------------------
d--------------------------------------------------------
a--------------------------------------------------------
d---0h2-22-2--0h2p0-3p0-2p0---0h2-22-2-2-2-///-14/////---
 
(1:22)
 
g-------------------------------------------
d------------------------------------------- x3
a-------------------------------------------
d--7--7-7--5-/-10-x-5--5-5-x-3--3-3--3-33---
 
(1:36)
 x3
g------------------------------|-------------------------------
d------------------------------|-------------------------------
a------------------------------|-------------------------------
d---0h2--2-2-2--2-2-2-3\2-2-2--|---/14--14-14-14--14-14-14-15--
 
(1:48)
 
g--------------------------------------------
d--------------------------------------------
a--------------------------------------------
d--0h2-2-x-0h2-2-x--33-0--0h2-2-x-0h2-2-x--3-
 
g--------------------------------------------------------
d--------------------------------------------------------
a--------------------------------------------------------
d--0h2-2-x-0h2-2-x--33-0--0h2-2-x-0h2-2-x-////////---\\\\-
 
(1:59)
 
g--------------------------------------------------------
d--------------------------------------------------------
a--------------------------------------------------------
d---0h2-22-2--0h2p0-3p0-2p0---0h2-2-x-0h2-2-xx--3--------
 
g--------------------------------------------------------
d--------------------------------------------------------
a--------------------------------------------------------
d---0h2-22-2--0h2p0-3p0-2p0---0h2-22-2-2-2-////-14/////--
 
(2:11)
 
g-------------------------------------------
d------------------------------------------- x3
a-------------------------------------------
d--7--7-7--5-/-10-x-5--5-5-x-3--3-3--3-33---
 
(2:25)
 
g---------------------------------------------------------------
d---------------------------------------------------------------
a---------------------------------------------------------------
d--12--12-12-12--8--8-8-8-8--17--17-17-17--15--15--15-15-15-15--
 
g----------------------------------------------
d----------------------------------------------
a----------------------------------------------
d--12--12-12-12--8--8-8-8-8--17--17-17-17--15--
 
(2:36)
 
g--------------------------------------------
d--------------------------------------------
a--------------------------------------------
d--0h2-2-x-0h2-2-x--33-0--0h2-2-x-0h2-2-x--3-
 
g-----------------------------------------------
d-----------------------------------------------
a-----------------------------------------------
d--0h2-2-x-0h2-2-x--33-0--0h2-2-x-////--15\\-3--
 
(2:48)
 x3
g------------------------------|----------------------------------------
d------------------------------|----------------------------------------
a------------------------------|----------------------------------------
d---0h2--2-2-2--2-2-2-3\2-2-2--|---/14--14-14-14--14-14-14-15/14-14-14--
 
(2:59)
 
g-------------------------------------------
d------------------------------------------- x3
a-------------------------------------------
d--7--7-7--5-/-10-x-5--5-5-x-3--3-3--3-33---
 
(3:14)
 
g---------------------------------
d--------------------------------- x4
a--------------//-14--17--16--\\--
d--2--2--2------------------------
 
(3:30)
 
g--------------------------
d--------------------------
a-----7-----------7--------
d--7-----7-----7-----7-----
 
(3:36)
 
g------------------------------|--------------------------------
d------------------------------|--------------------------------
a------------------------------|--------------------------------
d--2--2-x-2-----2--2-x-2---x-3-|--2--2-x-2-----2--2-x-215\\\---
 
(3:48)
 
g------------------------
d------------------------ x8
a------------------------
d---2--2-22--/-15-15-15--
 
(4:10)
 
g----------------------------
d---------------------------- x8
a----------------------------
d--0h2-2-x-0h2-2-x--///////--
 
(4:32) Quietly...
 
g----------------------------
d---------------------------- x4
a----------------------------
d--0h2-0h2-0h2-0h2-x--3-3-3--
 
(4:43)
 
g-------------------------------------------
d------------------------------------------- x6
a-------------------------------------------
d--7--7-7--5-/-10-x-5--5-5-x-3--3-3--3-33---
 
(5:12)
 
g------------------------------
d------------------------------
a------------------------------
d--2--2--2----2--2--2----2-----
 
 
(5:26)
 
g--------------------------------------------------------
d--------------------------------------------------------
a--------------------------------------------------------
d----xx---xx---xxx--2-2-3-----3-2---3-2---3-2-2--2---3b--
 
g-------------------------------------------------
d-------------------------------------------------
a-------------------------------------------------
d----xx---xx---xxx--2-2-3-----3-2---3-2---3-2-2---
 
(5:46)
 
g---------------------------------
d---------------------------------
a---------------------------------
d--2--2--2----2--2--2----2--2--3--