Band : Tool
Album: Undertow
Track: 5
Song : Crawl Away

Part : Bass
Tuning: Standard

Tabbed: Nolan Venhola, edited by Brad Haczynski
Email : nolan@tooltabs.net
Visit : Tooltabs.net

Legend

nh - natural harmonic

ph - pinch harmonic

pm - palm mute

x - muted string

h - hammer on

p - pull off

\\ - slide down

// - slide up

b - bend

~~ - vibrato

<7> - natural harmonic

x/// - pick scrape (directions same as slide)


w/ Chorus

(rest)

g--------------------------------------------------------------
d*-------------------------------------------------------------
a*--------------------------------------------------/-5-5-5----  <--yes its on the A string
e--0h2-2-0-2--0--2-2-2--2--2-2---0h2-2-0-2--0--2-2-------------      (listen to 1:30)

g--------------------------------------------------------------
d-------------------------------------------------------------*  (x7)
a-----------------------------------------------------3-2-0---*
e--0h2-2-0-2--0--2-2-2--2--2-2---0h2-2-0-2--0--2-2--x----------


g-----------------------------------
d----------------------------------- x4
a-----------------------------------
e--2---5---8---7---7-7-7-7-7-7-7----

g--------------------------------------------------------------
d*-------------------------------------------------------------
a*--------------------------------------------------/-5-5-5----
e--0h2-2-0-2--0--2-2-2--2--2-2---0h2-2-0-2--0--2-2-------------

g--------------------------------------------------------------
d-------------------------------------------------------------*  (x4)
a-----------------------------------------------------3-2-0---*
e--0h2-2-0-2--0--2-2-2--2--2-2---0h2-2-0-2--0--2-2--x----------


g-----------------------------------
d----------------------------------- x4
a-----------------------------------
e--2---5---8---7---7-7-7-7-7-7-7----

g--------------------
d-------------------- x4
a--------------------
e--0-3-3-0-2---------

g---------------------------------
d--------------------------------- x4
a---------------------------------
e--0-3-3-0-2-xxxx-2-xxxx-2-xxxx---

(underneath the guitar solo)
g------------
d--(fast)---- x(just go)
a------------
e--0h2-222---
pm*********


g----------
d----------
a----------
e--///14---

g--------------------------------------------------------------
d--------------------------------------------------------------
a---------------------------------------------------/-5-5-5----
e--0h2-2-0-2--0--2-2-2--2--2-2---0h2-2-0-2--0--2-2-------------

g--------------------------------------------------------------
d--------------------------------------------------------------
a-----------------------------------------------------3-2-0----
e--0h2-2-0-2--0--2-2-2--2--2-2---0h2-2-0-2--0--2-2--x----------

g----------------------------------------------
d----------------------------------------------
a----------------------------------------------
e--0-xx-0-x-0-0-0--0-0---2-xx-2-x-2-2-2--222---

g-----------------------------------------
d-----------------------------------------
a-----------------------------------------
e--0-xx-0-x-0-0-0--0-0---0h2--0-2--0-2~---

g--------------------------------------------------------------
d*-------------------------------------------------------------
a*--------------------------------------------------/-5-5-5----
e--0h2-2-0-2--0--2-2-2--2--2-2---0h2-2-0-2--0--2-2-------------

g--------------------------------------------------------------
d-------------------------------------------------------------*  (x3)
a-----------------------------------------------------3-2-0---*
e--0h2-2-0-2--0--2-2-2--2--2-2---0h2-2-0-2--0--2-2--x----------

g-----------------------------------
d----------------------------------- x4
a-----------------------------------
e--2---5---8---7---7-7-7-7-7-7-7----

g--------------
d--------------
a--------------
e--0-3-3-0-2---