Band : Tool
Album: Undertow
Track: 1
Song : Intolerance

Part : Bass
Tuning: drop D

Tabbed: Brad Haczynski (updated 1/8/03)
Email : thedad2000@aol.com
Visit : Tooltabs.net

Legend

nh - natural harmonic

ph - pinch harmonic

pm - palm mute

x - muted string

h - hammer on

p - pull off

\\ - slide down

// - slide up

b - bend

~~ - vibrato

<7>- natural harmonic

x/// - pick scrape (directions same as slide)


 
w/ Chorus
 
(0:21)
 
g-------------------------------------------------------
d------------------------------------------------------- x3
a-------------------------------------------------------
d--0--3--5---6p5--0h1----0---10\--3--5---6p5--0h1-------
 
(0:34)
 
g------------------------------------------
d------------------------------------------
a------------------------------------------
d--0--3--5---6p5--0h1----0---10\--3--5b----
 
(0:39)
 
g-------------------------------------------
d------------------------------------------- x4
a-------------------------------------3-----
d--0--3--0--3---0-1-0---0--3--0--1-1--------
 
(0:58) This is VERY INTERESTING.....here's how I tackle it.
       Very difficult to hear wha he's doing....DAMMNIT PAUL!!
 
   Ok ....I play this part muting over the 3rd fret bar.....because
   the technique is to mute but to let the harmonic ring out when I
   have it on the tab.....
 
g---x--x----x-x--x---x--x-----
d---x-(3)---x-x-(3)--x--x----- x4
a---x--x----x-x--x---x--x-----
d---x--x----x-x--x---x--x-----
 
(1:08)  Similar but mute over the 5th fret bar...
 
g-----(5)----(5)--------------
d---x------x--------x-x-x----- x3
a---x------x--------x-x-x-----
d---x------x--------x-x-x-----
 
(1:17)
 
g---x-x--
d---x-x--
a---x-x--
d---x-x--
 
(1:18) 
 
g----------------------------------------------
d—-10b----7-7-7-7-------10b-----7-7-7-7-7/-10—-x4
a---8b----5-5-5-5--------8b-----5-5-5-5-5/--8--
d---------0-0-0-0--1-3----------0-0-0-0-0------
 
 
 
 
(1:37)
 
g-------------------------------------------
d------------------------------------------- x4
a-------------------------------------3-----
d--0--3--0--3---0-1-0---0--3--0--1-1--------
 
(1:56)  This is ALL MUTED....Just figure out the rhythm.....I can try
        to tab the rhythm.....same basic rhythm as the harmonic part
        before....except no harmonics...
 
g------x--------x------------
d---x--x---x-x--x----x-x-x--- x7
a---x--x---x-x--x----x-x-x---
d---x--x---x-x--x----x-x-x---
 
(2:12)
 
g--------------------------------
d-0-0-0---0-0-0---0-0-0---0-0-0--
a-5-5-5---5-5-5---5-5-5---5-5-5--
d--------------------------------
 
(2:14)
 
g----------------------------------------------
d—-10b----7-7-7-7-------10b-----7-7-7-7-7/-10—-x4
a---8b----5-5-5-5--------8b-----5-5-5-5-5/--8--
d---------0-0-0-0--1-3----------0-0-0-0-0------
 
*Rest*
 
(2:41)
 
g-------------------------------------------------------
d------------------------------------------------------- x4
a-------------------------------------------------------
d--0--3--5---6p5--0h1----0---10\--3--5---6p5--0h1-------
 
(3:00)...throw in some pick scrapes
 
g---------
d---0----- x8
a---5-----
d---0-----
      hold...
 
(3:18)
 
g----7------7------------
d-0--0---0--0---0-0-0---- x7
a-5------5------5-5-5----
d------------------------
 
(3:35)
 
g---x-x---x-x-x------------------
d---x-x---x-x-x----x-x---x-------
a---x-x---x-x-x----x-x---x-------
d---x-x---x-x-x----x-x---x—12\\--
 
(3:37)
 
g----------------------------------------------
d—-10b----7-7-7-7-------10b-----7-7-7-7-7/-10—-x4
a---8b----5-5-5-5--------8b-----5-5-5-5-5/--8--
d---------0-0-0-0--1-3----------0-0-0-0-0------
 
 
*REST*
 
(4:05)
 
g---------------------
d--------------------- x8
a--3---3---3----------
d----5---5---5-3p0-0--
 
(4:24)
 
g--------------------------------
d-------------------------------- x4  shepards Bush video shows this clearly
a--------------------------------
d—-0-3-5-5—--0-3-5-5--—0-3-5-5-5-
 pm - - - - - - - - - - - - _
 
(4:33)
 
g--------------------
d----5--------------- x4
a------3-5--6p5—0h1--
d--0-----------------
 
g------------7-x//---
d--------------------
a---5----------------
d---0----------------