Band : Tool
Album: Undertow
Track: 2
Song : Prison Sex

Part : Bass
Tuning: drop B

Tabbed: Nolan Venhola (Updated by Brad Haczynski  01/08/03)
Email : nolan@tooltabs.net
Visit : Tooltabs.net

Legend

nh - natural harmonic

ph - pinch harmonic

pm - palm mute

x - muted string

h - hammer on

p - pull off

\\ - slide down

// - slide up

b - bend

~~ - vibrato

<7>- natural harmonic

x/// - pick scrape (directions same as slide)


 
*rest while guitar does the intro*
 
g------------------
d------------------ x4
a--5-----0----0h2--
b----3-0----3------
 
g---------------------
d--------2------------ x8
a--5----------0h2-22--
b----3-0----3---------
 
g------------------
d------------------ x4
a----5-------------
b--3---0—10---0----
 
g---------------------
d--------2------------ x8
a--5----------0h2-22--
b----3-0----3---------
 
                 x3
g------------------|----------------
d------------------|----------------
a----5-------------|----5-----------
b--3---0—10---0----|--3---0—-10------
 
g--------------------------------
d-------------------------------- x3
a--------------------------------
b--0--0-10--0-3--0-5--0-5-0-3-0--
 
g----------------------------------------
d----------------------------------------
a----------------------------------------
b--0-0-0--5-5-5--3-3-3--8-8-8--5-5--3-3--
 
                 x3
g------------------|----------------------
d------------------|--------2--2p0-2p0----
a--5-----0----0h2--|--5----------------2--
b----3-0----3------|----3-0---------------
 
g---------------------
d--------2------------ x8
a--5----------0h2-22--
b----3-0----3---------
 
                 x3
g------------------|----------------
d------------------|----------------
a----5-------------|----5-----------
b--3---0—10---0----|--3---0—-10------
 
g--------------------------------
d-------------------------------- x3
a--------------------------------
b--0--0-10--0-3--0-5--0-5-0-3-0--
 
g----------------------------------------
d---------------------------------------- x3
a----------------------------------------
b--0-0-0--5-5-5--3-3-3--8-8-8--5-5--3-3--
 
g-------------------------------
d-----------------------5h7-----
a-------------------5h7--------- x3
b--0--00--00--00--x-------------
 
g------------------------
d---7—x5------------5----
a---------x7---x5h7------
b------------------------
 
                 x3
g------------------|----------------
d------------------|----------------
a----5-------------|----5-----------
b--3---0—10---0----|--3---0—10------
 
seeing as there was some confusion with the next riff, I have explained it better.
                                           x15
g---------------------------------------------|------------------------
d---------------------------------------------|------------------------
a--0h2-2-2-2--0h2--p0h2-p0h2-p0h2-------------|--22--2-22--2-22--2-22--
b---------------------------------------------|------------------------
   **************  ^^^^^^^^^^^^^^ 
   picking         left hand hammer/pull off ONLY
 
 
g------------------------------------------------------------------
d------------------------------------------------------------------
a------------------------------------------------------------------
b--//12--12--12-12-12--10--10--10-10-10--8--8--8-8-8--5--5--5-5-5--
 
g------------------------
d------------------------
a--------------------10-- x4
b--12-12-1212-121212-----
 
g--------------------------
d-------------------------- x4
a--------------------------
b--3-0-5-0-3-0-10-0-12-10—
 
g----------------------
d---------------------- x4
a----------------------
b--3--5--3--10--12-10--
 
gradually slowing down....follow drums...
 
g------------------
d--4--x-x-x-x------ x8
a--2--x-x-x-x------
b--0--x-x-x-x------