Band : Tool
Album: Undertow
Track: 7
Song : Undertow

Part : Bass
Tuning: drop D

Tabbed: Brad Haczynski
Email : thedad2000@aol.com
Visit : Tooltabs.net

Legend

nh - natural harmonic

ph - pinch harmonic

pm - palm mute

x - muted string

h - hammer on

p - pull off

\\ - slide down

// - slide up

b - bend

~~ - vibrato

<7>- natural harmonic

x/// - pick scrape (directions same as slide)


 
w/ Chorus
 
(0:04)
 
g----------------------
d---------------------- 
a----------------------
d—x-x-x-x----x-x-x-x---
 
(0:06)
 
g-----------------
d----------------- x8
a-----------------
d--5h7-7/10-0-00--
 
(0:18) practice the rhythm..it takes a while to get down
 
g--------------------------------------------
d-------------------------------------------- x6
a--------------------------------------------
d--5h7-7/10-0-13-0---12-0---13-1313p12-12-12-
  very quick
 
g----------------------------------------------
d---------------------------------------------- 
a---------------------------------------15h17--
d--5h7-7/10-0-13-0---12-0---13-13—15h17--------
 
g--------------------------------------------
d-------------------------------------------- 
a--------------------------------------------
d--5h7-7/10-0-13-0---12-0---13-1313p12-12-12-
 
(0:59)
 
g--------------------------------------
d-----------------------------2--------
a--------------------------------3—5---
d--\\\\\\\\\3-b-r-b-r---2-2-2----------
 
 
(1:05)
 
g--------------------------
d--------2----------------- x4
a----------x-3—x-0-0-0-----
d---2-x----------------x-x—
 
 
(1:17)
 
g------------------------------------------------------------
d------------------------------------------------------------
a------------------------------------------------------------
d--5-3-0-2-1-0-5-3-0-2-0-6-0--5-3-0-2-1-0-5-3-0-1-0-3-0-6-0—
 
 
g---------------------------------------------------------------------------
d---------------------------------------------------------------------------
a---------------------------------------------------------------------------
d--5-3-0-2-1-0-5-3-0-2-0-6-0--5-3-0-2-1-0-5-3-0-1-0-3-0----6--—-8--—-3—---0—
 
 
(1:37)
 
g-----------------
d----------------- x8
a-----------------
d--5h7-7/10-0-00--
 
 
(1:49)
 
g--------------------------------------------
d-------------------------------------------- x6
a--------------------------------------------
d--5h7-7/10-0-13-0---12-0---13-1313p12-12-12-
  very quick
 
g----------------------------------------------
d---------------------------------------------- 
a---------------------------------------15h17--
d--5h7-7/10-0-13-0---12-0---13-13—15h17--------
 
g--------------------------------------------
d-------------------------------------------- 
a--------------------------------------------
d--5h7-7/10-0-13-0---12-0---13-1313p12-12-12-
 
 
(2:30)
 
g---------------------------------------
d------------------------------2--------
a---------------------------------3—5---
d--\\\\\\\\\3-b-r-b-r---2-2-2-----------
 
g--------------------------
d--------2----------------- x8
a----------x-3—x-0-0-0-----
d---2-x----------------x-x—
 
 
(3:01)
 
g------------------------------------------------------------
d------------------------------------------------------------ x5
a------------------------------------------------------------
d--5-3-0-2-1-0-5-3-0-2-0-6-0--5-3-0-2-1-0-5-3-0-1-0-3-0-6-0—-
 
                                 slower.. 
g-----------------------------------------------------------------------------------
d----------------------------------------------------------------------------------- 
a-----------------------------------------------------------------------------------
d--5-3-0-2-1-0-5-3-0-2-0-6-0--5-3-0-2-1-0-5-3-0--1—-0—-3—-0--6--0—-7—-0—-10—-0—-11--
 
 
(3:36)
 
g--------------------------------xx--x-xx----
d--------------------------------xx--x-xx---- 
a--------------------------------xx--x-xx----
d--12-15--0--0--5-8--0--3--3--0--xx--x-xx--<12>--
 
 
g-------------------------------------
d------------------------------------- 
a-------------------------------------
d--12-15--x--0--5-6-5--0x-----0----3--
                                                                       not sure on this fill...improvise!!
g------------------------------------------------------------------------------------------
d------------------------------------------------------------------------------------------
a---------------------------------x-x-xx----------------------------------17x-17-17-15\12--
d--12-15--x--0--5-8--0--3--3---0--x-x-xx--12-15--x--0--5-6--0--3--3---0x-------------------
 
g-------------------------------------------------------------------------
d-------------------------------------------------------------------------
a---------------------------------xx-x-xx---------------------------------
d--12-15--x--0--5-8--0--3--3---0--xx-x-xx--12-15--x--0--5-6--0----3----6—-
 
g------------------------------------------------------------------------------------------
d------------------------------------------------------------------------------------------
a---------------------------------x-x-xx----------------------------------17x-17-17-15\12--
d--12-15--x--0--5-8--0--3--3---0--x-x-xx--12-15--x--0--5-6--0--3--3---0x-------------------
 
g--------------------------------------------------------------
d--------------------------------xx-x-xxx---------------------- 
a--------------------------------xx-x-xxx----------------------
d--12-15--x--0--5-8--0--3--3---0-xx-x-xxx--12-15--x--0--5-6-5--
 
(4:30) 
                                  x3
g-----------------------------------|-----------------------------------
d-----------------------------------|----------------------------------- 
a-----------------------------------|-----------------------------------
d--0---3---6---7---10---11---12-15--|--0---3---6---7---10---11---12h15x-
 
 
rest
 
(4:57)
 
g-----------------------------------
d------------------0-12h15---------- x6
a----------0-12h15---------0-12h15--
d--0-12h15--------------------------
 
 
(5:10)
                        x3
g-------------------------|--------------------
d-------------------------|-------------------- 
a-------------------------|------------------x-
d--5-3-0-2-1-0-5-3-0-2-1--|--5-3-0-2-1-5-3-0-x-