Band : Tool
Album: Ænima
Track: 9
Song : Jimmy

Part : Guitar
Tuning: drop D

Tabbed: Nolan Venhola
Email : nolan@tooltabs.net
Visit : Tooltabs.net

Legend

nh - natural harmonic

ph - pinch harmonic

pm - palm mute

x - muted string

h - hammer on

p - pull off

\\ - slide down

// - slide up

b - bend

~~ - vibrato

<7> - natural harmonic

x/// - pick scrape (directions same as slide)


(distortion)

e----------------------------------------
b----------------------------------------
g----------------------------------------
d---------------------------------------- x6
a----------------------------------------
d--/12-0-0-3---/12-0-0-5---/12-0-0-1/10--

(flange and delay)

e-------------------------------------------------------------------
b-------------------------------------------------------------------
g-------------------------------------------------------------------
d--0---12----------10----------12-----------------------------------
a--0---12-------12----------12----12--------------------------------
d--0---12----------------------------------13-15-12-----------------

e---------------------------------------------
b---------------------------------------------
g---------------------------------------------
d---------------------------------------------
a---------------------------------------------
d--13-15-12-----------------12--12///--1\10---

(flange and delay off)

e------------------
b------------------
g------------------
d------------------ x8
a------------------
d--0-10-12-0-12~~--

e----------------------------------------------
b----------------------------------------------
g----------------------------------------------
d---------------------------------------------- x4
a----------------------------------------------
d--12-0--0-12\10--12-0--0-10\12--12-0--0-1s10--
  pm - - - - - - - - - - - - - - - - - - - - |

e-------------------------------------------------
b-------------------------------------------------
g-------------------------------------------------
d-------------------------------------------------
a------------------------------------------------- x3
d--12-15-12-10-12---12-15-12-10-12---12-15-12-10--
  pm - - - - - - - - - - - - - - - - - - - - - -|

e-----------------------------------------
b-----------------------------------------
g-----------------------------------------
d-----------------------------------------
a-----------------------------------------
d--12-15-12-10-12-12-12-12-10-10-12-12b---

e----------------------------------------
b----------------------------------------
g----------------------------------------
d---------------------------------------- x6
a----------------------------------------
d--/12-0-0-3---/12-0-0-5---/12-0-0-1/10--

e------------------------------------------------
b------------------------------------------------
g------------------------------------------------
d--0-10-12-0-12b--0-10-12-0-12b--0-10-12-0-1/10--
a--0-10-12-0-12b--0-10-12-0-12b--0-10-12-0-1/10--
d--0-10-12-0-12b--0-10-12-0-12b--0-10-12-0-1/10--

  (tremelo picking)
e--------------------
b--15--bbb--rrr------
g--14--bbb--rrr------
d--12--bbb--rrr------
a--12--bbb--rrr------
d--12--bbb--rrr------

e-------------------------------------
b-------------------------------------
g-------------------------------------
d--12-----7-----10-10----0--8-7-5/12-- x3
a--12-----7-----10-10----0--8-7-5/12--
d--12-----7-----10-10----0--8-7-5/12--

e-------------------------
b-------------------------
g-------------------------
d--12-----7-----10b-------
a--12-----7-----10b-------
d--12-----7-----10b-------

(this is underneath distorted bass riff)
e---------------------------------------
b---------------------------------------
g---------------------------------------
d--(fast tremolo picking rythmn)-------- x8
a---------------------------------------
d--10-12-12-10-12-12-10-12-12-10-12-12--

                 x8                  x8
e-------------------|-------------------
b-------------------|-------------------
g-------------------|------------------- ]
d-------------------|------------------- ] x2
a-------------------|-------------------
d--12-15-12-10-12---|--12-10-12-10-12~--
  pm - - - - - - |

e----------------------------------------
b----------------------------------------
g----------------------------------------
d--/12-0-0-3---/12-0-0-5---/12-0-0-1/10--
a--/12-0-0-3---/12-0-0-5---/12-0-0-1/10-- x4
d--/12-0-0-3---/12-0-0-5---/12-0-0-1/10--

(flange)

e-------------------------------------------------
b-------------------------------------------------
g-------------------------------------------------
d--12--------6----------3--------------3/5-5------
a--12--------6----------3--------------3/5-5------
d--12--------6----------3--------------3/5-5------

e-------------------------------------------------
b-------------------------------------------------
g-------------------------------------------------
d--12--------6----------3--------------3/8-8------
a--12--------6----------3--------------3/8-8------
d--12--------6----------3--------------3/8-8------

e-------------------------------------------------
b-------------------------------------------------
g-------------------------------------------------
d--12--------6----------3--------------3/5-5------
a--12--------6----------3--------------3/5-5------
d--12--------6----------3--------------3/5-5------

e-------------------------------------------------
b-------------------------------------------------
g-------------------------------------------------
d--12--------10---------3b------------------------
a--12--------10---------3b------------------------
d--12--------10---------3b------------------------

e-----------------------------------------------------
b-----------------------------------------------------
g-----------------------------------------------------
d----------------------------------------------------- x3
a----------------------------3b-------------0-1/------
d--12p0---0-3-5-6-------3b-------------0-1/-----------

e-------------------------------------------------
b-------------------------------------------------
g-------------------------------------------------
d--12--------6----------3---------8---------------
a--12--------6----------3---------8---------------
d--12--------6----------3---------8-----8b--------

(flange off)

e----------------------------------------
b----------------------------------------
g----------------------------------------
d--/12-0-0-3---/12-0-0-5---/12-0-0-1/10--
a--/12-0-0-3---/12-0-0-5---/12-0-0-1/10-- x3
d--/12-0-0-3---/12-0-0-5---/12-0-0-1/10--

e----------------------------------------
b----------------------------------------
g----------------------------------------
d--/12-0-0-3---/12-0-0-5---/12-0-0-1b----
a--/12-0-0-3---/12-0-0-5---/12-0-0-1b----
d--/12-0-0-3---/12-0-0-5---/12-0-0-1b----