Band : Tool
Album: Ænima
Track: 11
Song : Pushit

Part : Guitar
Tuning: drop D

Tabbed: Nolan Venhola
Email : nolan@tooltabs.net
Visit : Tooltabs.net

Legend

nh - natural harmonic

ph - pinch harmonic

pm - palm mute

x - muted string

h - hammer on

p - pull off

\\ - slide down

// - slide up

b - bend

~~ - vibrato

<7> - natural harmonic

x/// - pick scrape (directions same as slide)


(turn tone knob all the way down)

(distortion with flange)

*Note: A string is slightly palm muted throughout*

*buzzing*

e----------------------------
b----------------------------
g----------------------------
d--10p9-7-------5-----7------ x10
a-------0-0-0-0---0-0---0-0--
d----------------------------

e-----------
b-----------
g-----------
d--10-9-----
a--10-9-----
d--10-9-----

e----------------------------
b----------------------------
g----------------------------
d--7-----5-----7-----10p9---- x4
a----0-0---0-0---0-0------0--
d----------------------------

(delay)

e---------------------------------------------
b---------------------------------------------
g---------------------------------------------
d--7----------------7-----5-----7-----10p9----
a--0------------------0-0---0-0---0-0------0--
d---------------------------------------------

e---------------------------------------------
b---------------------------------------------
g---------------------------------------------
d--7---------10p9---7-----5-----7-----10p9----
a--0--------------0---0-0---0-0---0-0------0--
d---------------------------------------------

e---------------------------------------------
b---------------------------------------------
g---------------------------------------------
d--7----------------7-----5-----7-----10p9----
a--0------------------0-0---0-0---0-0------0--
d---------------------------------------------

e---------------------------------------------
b---------------------------------------------
g---------------------------------------------
d--7---------10p9---7-----5-----7-----10p9----
a--0--------------0---0-0---0-0---0-0------0--
d---------------------------------------------

 (chords implied by bass)
e----------------------------
b----------------------------
g-(9)---(7)---(9)---(12\11)--
d--7-----5-----7-----10\9---- x4
a----0-0---0-0---0-0------0--
d----------------------------

(flange and delay off)

e----------------------------
b----------------------------
g----------------------------
d--7-----5-----7-----10p9---- x4
a--0-0-0-0-0-0-0-------------
d----------------------------

e-------------------------
b-------------------------
g-------------------------
d--0-7--0-5--0-7--0-10p9-- x4
a--0-7--0-5--0-7--0-10p9--
d--0-7--0-5--0-7--0-10p9--

e----------------------------
b----------------------------
g----------------------------
d--7-----5-----7-----10p9---- x4
a----0-0---0-0---0-0------0--
d----------------------------

e----------------------------------------
b----------------------------------------
g----------------------------------------
d--7------(volume swells with volume-----
a--0---------knob and delay pedal)-------
d----------------------------------------

e----------------------------
b----------------------------
g----------------------------
d--7-----5-----7-----10p9---- x4
a--0-0-0-0-0-0-0-------------
d----------------------------

e-------------------------
b-------------------------
g-------------------------
d--0-7--0-5--0-7--0-10p9-- x4
a--0-7--0-5--0-7--0-10p9--
d--0-7--0-5--0-7--0-10p9--

e----------------------------
b----------------------------
g----------------------------
d--7-----5-----7-----10p9---- x11
a----0-0---0-0---0-0------0--
d----------------------------

e------------------------------
b------------------------------
g------------------------------
d--7-----9-----12-----14p12\\--
a----0-0---0-0----0-0----------
d------------------------------

e----------------------------------------------------
b----------------------------------------------------
g----------------------------------------------------
d--7-777-7-777-7-777-7-777--6-666-6-666-6-666-6-666--
a--7-777-7-777-7-777-7-777--6-666-6-666-6-666-6-666--
d--7-777-7-777-7-777-7-777--6-666-6-666-6-666-6-666--

e----------------------------------------------------
b----------------------------------------------------
g----------------------------------------------------
d--3-333-3-333-3-333-3-333--5-555-5-555-5-555-5-555--
a--3-333-3-333-3-333-3-333--5-555-5-555-5-555-5-555--
d--3-333-3-333-3-333-3-333--5-555-5-555-5-555-5-555--

e----------------------------------------------------
b----------------------------------------------------
g----------------------------------------------------
d--7-777-7-777-7-777-7-777--6-666-6-666-6-666-6-666--
a--7-777-7-777-7-777-7-777--6-666-6-666-6-666-6-666--
d--7-777-7-777-7-777-7-777--6-666-6-666-6-666-6-666--

e----------------------------------------------------
b----------------------------------------------------
g----------------------------------------------------
d--3-xxx-3-xxx-3-xxx-3-xxx--5-xxx-5-xxx-5-xxx-5-xxx--
a--3-xxx-3-xxx-3-xxx-3-xxx--5-xxx-5-xxx-5-xxx-5-xxx--
d--3-xxx-3-xxx-3-xxx-3-xxx--5-xxx-5-xxx-5-xxx-5-xxx--

                       4x
e----------|---------------
b----------|---------------
g----------|---------------
d--10-9-7--|--3-00-3-/10---
a--10-9-7--|--3-00-3-/10---
d--10-9-7--|--3-00-3-/10---

e----------------------------------
b----------------------------------
g----------------------------------
d--7~--7-7-7--7-7-7--7-7-7--7~-7~-- x4
a--0~--0-0-0--0-0-0--0-0-0--0~-0~--
d----------------------------------

(with delay)

e---------------------------------------------
b---------------------------------------------
g---------------------------------------------
d--0---------0---------0---------0-------0----
a--0---------0---------0---------0-------0----
d--0---------0---------0---------0-------0----

*rest for 12 bars*

(pick scrapes)

(clean with delay)

e-----------------------------------
b-----15-17-15-14-12-----12--12-----
g--14----------------12----12---14--
d-----------------------------------
a-----------------------------------
d-----------------------------------

*rest for 3.5 bars*

e--------------------------------
b-----15-------------------------
g--14------(rest)-------(rest)---
d--------------------------------
a-----------------x///-----------
d--------------------------------

e-------------------------------------------------------------------
b-----15------------------------------------------------------------
g--14-----15-14--14-12--12-11--11-9------------12---14-12-----------
d------------------------------------14-12--12------------12-11-----
a---------------------------------------------------------------12--
d-------------------------------------------------------------------

e---------------------------
b---------------------------
g---------------------------
d--------11---14---17---19--
a--12--0----0----0----0-----
d---------------------------

*rest*

e----------
b-----15---
g--14------
d----------
a----------
d----------

(flange)

(very quiet)

e---------------------------------------------------
b---------------------------------------------------
g-----14----14-----14----14-----14----14-----14-12--
d--12----12-----15----15-----17----17-----10-------- x2
a---------------------------------------------------
d---------------------------------------------------

*rest*

(distortion)

e----------------------------------------------------------------
b----------------------------10-10------8-----8-----8--8--8-8----
g--2-2-2-2-2-2-2-2-----------9--9-------7-----7-----7--7--7-7----
d--2-2-2-2-2-2-2-2---7-------7--7--0-5--5--5--5--5--5--5--5-5-5--
a--0-0-0-0-0-0-0-0---7-------7--7--0-5--5--5--5--5--5--5--5-5-5--
d--------------------7-------7--7--0-5--5--5--5--5--5--5--5-5-5--
  pm - - - - - - |

e------------------------------------------------
b------------------------------------------------
g------------------------------------------------
d--(tremolo picking throughout)------------------
a------------------------------------------------
d--7--------------///-12--//-14-//-15-//-17b-----

          x4
e-----------|-------------------5---
b-10-/-15---|----8--8---8-8-8-8--8--
g-9--/-14---|----7--7---7-7-7-7---7-
d-7--/-12-0-|-5--5--5---------------
a-7--/-12-0-|-5--5--5---------------
d-----------|-5--5--5---------------

e--------------------------------------------------
b--------------------------------------------------
g--2-(tremolo pick)-2h3p2-2-(t.p.)-2h3p2-2-(t.p.)--
d--------------------------------------------------
a--------------------------------------------------
d--------------------------------------------------

 (tremolo picking)                   x :)
e---------------------------|------------
b---------------------------|-(go nuts)--
g--2h5p2-2-2h5p2-2-2h5p2-2--|--2h3-2h5---
d---------------------------|------------
a---------------------------|------------
d---------------------------|------------

e---------------------------------------------------
b---------------------------------------------------
g---------------------------------------------------
d--/14-14-14--15-17-17-17-----17-17-17-x-12-12-12\-- x2
a--/12-12-12--15-15-15-15--15-17-17-17-x-12-12-12\--
d--/12-12-12--15-15-15-15--15-17-17-17-x-12-12-12\--

e------------------
b------------------
g------------------
d--7--7--7--5-5h7-- x3
a------------------
d------------------

e----------------------------------------------------
b----------------------------------------------------
g----------------9-9--12-12--7-7-6-6-6-9-6-----------
d--7b--------7-7---------------------------7---------
a------------------------------------------0---------
d----------------------------------------------------
   ph

e------------------------------------------------
b------------------------------------------------
g------------9-9--12-12--7-7-6-6-6-9-6-----------
d--5-5--7-7----------------------------7--------- x2
a--------------------------------------0---------
d------------------------------------------------

e------------------------------------
b------------------------------------
g------------------------------------
d--5-5--7-7----7---5-----------------
a------------7---7---5-5-5-4-7-4-0---
d------------------------------------

(flange)

e-----------------------
b-----------------------
g--2-2-2-2-2-2-2-2-2-2--
d--2-2-2-2-2-2-2-2-2-2--
a--0-0-0-0-0-0-0-0-0-0--
d-----------------------
  pm - - - - - |

e----------------------------------
b-------------------3--------------
g-------------------2--------------
d--7-7--2-2--5-5--0-0-------------- x3
a--7-7--2-2--5-5--0-0--------------
d--7-7--2-2--5-5--0-0--------------

*rest*

e-----------------------------------------------
b-------------------3---------------------------
g-------------------2---------------------------
d--7-7--2-2--5-5--0-0---0-00-0--0-00-0--0-00-0--
a--7-7--2-2--5-5--0-0---0-00-0--0-00-0--0-00-0--
d--7-7--2-2--5-5--0-0---0-00-0--0-00-0--0-00-0--
                        pm - - - - - - - - - |

e--------------------------
b--------------------------
g--------------------------
d--7-7--2-2-/-10-10b-------
a--7-7--2-2-/-10-10b-------
d--7-7--2-2-/-10-10b-------

             4x
e---------------
b---------------
g---------------
d--3-000-3-000--
a--3-000-3-000--
d--3-000-3-000--

e----------------------------------
b----------------------------------
g----------------------------------
d--7~--7-7-7--7-7-7--7-7-7--7~-7~-- x8
a--0~--0-0-0--0-0-0--0-0-0--0~-0~--
d----------------------------------

                              x3
e--------------------------------|---------------------------
b--------------------------------|---------------------------
g--------------------------------|---------------------------
d--7-7-7-10-1010-10--8-----------|--7--7--7-7-7-7-7-7-7-7-7--
a--0-0-0-10-1010-10--8-8h10-10~--|--0--0--0-0-0-0-0-0-0-0-0--
d--------10-1010-10--8-----------|---------------------------

             x2
e---------------|---------
b---------------|---------
g---------------|---------
d--7--0--10--0--|--8------
a--7--0--10--0--|--8------
d--7--0--10--0--|--8------