Band : Tool
Album: Lateralus
Track: 10
Song : Disposition

Part : Guitar
Tuning: drop D

Tabbed: Nolan Venhola
Email : nolan@tooltabs.net
Visit : Tooltabs.net

Legend

nh - natural harmonic

ph - pinch harmonic

pm - palm mute

x - muted string

h - hammer on

p - pull off

\\ - slide down

// - slide up

b - bend

~~ - vibrato

<7> - natural harmonic

x/// - pick scrape (directions same as slide)


Note: Excuse the departure from my usual tab format,
      I'm being elegant since this is an elegant song

      As well - the bass is doing those underlying harmonics
      in the beginning, trust me, channel inversion and mixing
      doesn't lie (cuts out the bass and vocals almost completely)

(electric clean, delay)
e------------------------|------------------------
b------------------------|------------------------
g------------------------|------------------------
d------------------------|------------------------
a-<7>--------------------|-<7>--------------------
d------------------------|------------------------

e------------------------|------------------------
b------------------------|------------------------
g------------------------|------------------------
d------------------------|------------------------
a-<7>--------------------|-<7>--------------------
d------------------------|------------------------

e------------------------|------------------------
b---<7>------------------|---<7>------------------
g------------------------|-----<7>----------------
d------------------------|------------------------
a-<7>--------------------|-<7>--------------------
d------------------------|------------------------

(electric)
e------------------------|------------------------
b---<7>------------------|---<7>----<7>-----------
g-----<7>----------------|-----<7>----------------
d-------<7>--------------|-------<7>--------------
a-<7>--------------------|-<7>--------------------
d------------------------|------------------------
|                        |
|(acoustic)              |
e------------------------|------------------------
b------------------------|------------------------
g------------------------|------------------------
d------------------------|------------------------
a------------------------|-7----------------------
d------------------------|------------------------

e------------------------|------------------------
b---<7>-------10--7--7---|---<7>----------7--7----
g-----<7>----------------|-----<7>----------------
d-------<7>--------------|-------<7>---9----------
a-<7>--------------------|-<7>--------------------
d------------------------|------------------------
|                        |
e------------------------|------------------------
b------------------------|------------------------
g------------------------|------------------------
d-2---4-4h5-4------------|-2---4-4h5-4------------
a------------------------|------------------------
d------------------------|------------------------

e------------------------|------------------------
b---<7>----<7>--10-7--7--|---------------7--7-----
g-----<7>----------------|--7--9------------------
d-------<7>----0---------|------------9-----------
a-<7>--------------------|------------------------
d------------------------|------------------------
|                        |
e------------------------|------------------------
b------------------------|------------------------
g------------------------|------------------------
d-2---4-4h5-4------------|-2---4-4h5-4------------
a------------------------|------------------------
d------------------------|------------------------

e------------------------|------------------------
b---<7>-------10--7--7---|---<7>----------7--7----
g-----<7>----------------|-----<7>----------------
d-------<7>--------------|-------<7>---9----------
a-<7>--------------------|-<7>--------------------
d------------------------|------------------------
|                        |
e------------------------|------------------------
b------------------------|------------------------
g------------------------|------------------------
d-2---4-4h5-4------------|-2---4-4h5-4------------
a------------------------|------------------------
d------------------------|------------------------

e------------------------|------------------------
b---<7>----<7>--10-7--7--|------------------------
g-----<7>----------------|--7--9--7---------------
d-------<7>----0---------|------------------------
a-<7>--------------------|------------------------
d------------------------|------------------------
|                        |
e------------------------|------------------------
b------------------------|------------------------
g----------------5--4----|------------------------
d-2---4-4h5-4------------|-2---4-4h5-4------------
a------------------------|------------------------
d------------------------|------------------------

1:24

                                              x3
e------------------------|------------------------
b------------------------|------------------------
g-9----------------------|-9----------------------
d----9-------------------|----9-------------------
a------------------------|------------------------
d------------------------|------------------------
|                        |                    x3
e------------------------|------------------------
b------------------------|------------------------
g------------------------|------------------------
d-------------2--4-------|-2---4-4h5-4------------
a------------------------|------------------------
d------------------------|------------------------


e------------------------|------------------------
b------------------------|------------------------
g-9----------------------|-9----------------------
d----9-------------------|----9-------------------
a------------------------|------------------------
d------------------------|------------------------
|                        |
e------------------------|------------------------
b------------------------|------------------------
g------------------------|----------------2-------
d-2---4-4h5-4----0-2-0---|-2---4-4h5-4------------
a--------------2-------2-|------------------------
d------------------------|------------------------

e------------------------|------------------------
b------------------------|------------------------
g-9----------------------|-9---------------7b-----
d----9-------------------|----9-------------------
a------------------------|------------------------
d------------------------|------------------------
|                        |
e------------------------|------------------------
b------------------------|------------------------
g------------------------|------------------------
d-2---4-4h5-4------------|-2---4-4h5-4------------
a------------------------|------------------------
d------------------------|------------------------

                      x3
e------------------------|------------------------
b------------------------|------------------------
g-9----------------------|-9----------------------
d----9-------------------|----9-------------------
a------------------------|------------------------
d------------------------|------------------------
|                     x3 |
e------------------------|------------------------
b------------------------|------------------------
g------------------------|------------------------
d-2---4-4h5-4------------|-2---4------------------
a------------------------|------------------------
d------------------------|------------------------

2:27

(electric, left channel)                       x3                       x4
e------------------------|------------------------|------------------------
b---7--7--7-7------------|---7--7--7-7------------|---7-7-7--7-7-----------
g----------------7-9-7---|-----------------7-9-7--|-----------------7-9-7--
d-9-----------9----------|-9------------9---------|-9-------------9--------
a------------------------|------------------------|------------------------
d------------------------|------------------------|------------------------
|                        |                        |
|(electric,right channel)|                     x3 |                     x4
e------------------------|------------------------|------------------------
b---7--7--7-7------------|---7--7--7-7------------|---7-7-7--7-7-----------
g----------------7-9-7-7-|9-7-------------7-9-7-7-|9-7-------------7-9-7-7-
d-9-----------9----------|-------------9----------|-------------9----------
a------------------------|------------------------|------------------------
d------------------------|------------------------|------------------------
|                        |                        |
|(acoustic)              |                        |        (2nd time only)
e------------------------|------------------------|------------------------
b------------------------|------------------------|------------------------
g------------------------|------------------------|------------------------
d-2----------------------|-2----------------------|-<7>-<7>----------------
a------------------------|------------------------|------------------------
d------------------------|------------------------|------------------------

(electric, left channel)
                      x4
e------------------------|------------------------|-----------------------7-------
b-----7-7h8-7------------|-----7-7h8-7------------|-----7-7h8-7-777-77-7-8--8-7-8-
g-9----------------------|-9----------------------|-9-----------------------------
d------------------------|------------------------|-------------------------------
a------------------------|------------------------|-------------------------------
d------------------------|------------------------|-------------------------------
|                        |
|(electric, right)    x4 |
e------------------------|------------------------|-------------------------------
b------7-7h8-7-----------|------------------------|-------------------------------
g--9---------------------|--9----9b---------------|-9---7b----9b------------------
d------------------------|-----------9------------|----------------------9--------
a------------------------|------------------------|-------------------------------
d------------------------|------------------------|-------------------------------
|                        |
|(acoustic)           x4 |
e------------------------|------------------------|-------------------------------
b------------------------|------------------------|-------------------------------
g-------<7>--------------|------------------------|------------------------0-2-0--
d----<7>---<7>-----------|-2---4-4h5-4------------|-2---4-4h5-4----------2--------
a-<7>--------------------|------------------------|-------------------------------
d------------------------|------------------------|-------------------------------


(electric, left channel)                                                 x2
e------------------------|------------------------|-------------------------
b-----7-7h8-7------------|-----7-7h8-7------------|-----7-7h8-7-------------
g-9----------------------|-9-----------------7/9--|-9-----------------------
d------------------------|------------------------|-------------------------
a------------------------|------------------------|-------------------------
d------------------------|------------------------|-------------------------
|                        |                        |
|(electric,right channel)|                        |                      x2
e------------------------|------------------------|-------------------------
b------7-7h8-7-----------|------7--7h8-7----------|------7-7h8-7------------
g--9---------------------|--9-----------------7/9-|--9----------------------
d---------------9--------|---------------9--------|---------------9---------
a------------------------|------------------------|-------------------------
d------------------------|------------------------|-------------------------
|                        |                        |
|(acoustic)              |                        |                      x2
e------------------------|------------------------|-------------------------
b------------------------|------------------------|-------------------------
g------------------------|------------------------|-------------------------
d--------0-2-0-----0-2-0-|--------0-2-0-----0-2-0-|---------0-2-0-----0-2-0-
a-2-----2-----2---2------|-2-----2-----2---2------|-2------2-----2---2------
d------------------------|------------------------|-------------------------

(electric, both channels)
e------------------------|------------------------|------------------------
b-7-----------7----------|-7------------7----5/8--|-7----------5/8-7---5/8-
g------------------------|------------------------|------------------------
d---------------9\-------|----------------9\------|------------------9\----
a------------------------|------------------------|------------------------
d------------------------|------------------------|------------------------
|                        |                        |
|(acoustic)              |                        |                      x2
e------------------------|------------------------|-------------------------
b------------------------|------------------------|-------------------------
g-------<7>--------------|-------<7>--------------|-------<7>---------------
d----<7>---<7>-----------|----<7>---<7>-----------|----<7>---<7>------------
a-<7>--------------------|-<7>--------------------|-<7>---------------------
d------------------------|------------------------|-------------------------

e------------------------
b-7-----------7----------
g------------------------
d---------------9\-------
a------------------------
d------------------------
|
e------------------------
b------------------------
g-------<7>--------------
d----<7>---<7>-----------
a-<7>--------------------
d------------------------

(electric, left channel)
e------------------------|------------------------|------------------------
b-7~-----------7~--------|-7~-----------7~--------|------------------------
g------------------------|------------------------|---------------9b-------
d----------------9\------|----------------9\------|------------------9\----
a------------------------|------------------------|------------------------
d------------------------|------------------------|------------------------
|                        |                        |
|(electric,right channel & part of left channel)  |
e------------------------|------------------------|------------------------
b------------------------|------------------------|------------------------
g--------------9~--------|--------------9b--------|---------------9b-------
d----------------9\------|----------------9\------|------------------9\----
a------------------------|------------------------|------------------------
d------------------------|------------------------|------------------------
|                        |                        |
|(acoustic)              |                        |
e------------------------|------------------------|-------------------------
b------------------------|------------------------|-------------------------
g------------------------|------------------------|-------------------------
d------------------------|------------------------|-------------------------
a-<7>----------<7>-------|-<7>----------<7>-------|-------------------------
d------------------------|------------------------|-------------------------