Band : Tool
Album: Lateralus
Track: 2
Song : Eon Blue Apocalypse

Part : Guitar
Tuning: drop D

Tabbed: Nolan Venhola
Email : nolan@tooltabs.net
Visit : Tooltabs.net

Legend

nh - natural harmonic

ph - pinch harmonic

pm - palm mute

x - muted string

h - hammer on

p - pull off

// - slide down

\\ - slide up

b - bend

~~ - vibrato

<7> - natural harmonic

x/// - pick scrape (directions same as slide)


e-----------------------------------------------------------------------
b-----------------------------------------------------------------------
g-----------------------------------------------------------------------
d--0--(tremolo picking, keeps going till 40 seconds in)-----------------
a-----------------------------------------------------------------------
d--------h10-h12---h10-h12--h3-h5----h15--h10-h12---h10-h12--h3-h5--p0--

*tremolo picking on open D ends*

(guitar part, at 43 seconds,with delay)
e----------------------------------------------------------------------------
b-------------------------------------------------------------------------3--
g------------------------------------------------------------------------2---
d---8p7-7---3/5-5/7-3----8p7-7---3/5-5\7-5----5--------5----------------0----
a-------------------------------------------6---6-5--6---6-5--6-----5--0-----
d----------------------0----------------------------------------8-7----------