Band : Tool
Album: Lateralus
Track: 3
Song : The Patient

Part : Guitar
Tuning: drop D

Tabbed: Nolan Venhola
Email : nolan@tooltabs.net
Visit : Tooltabs.net

Legend

nh - natural harmonic

ph - pinch harmonic

pm - palm mute

x - muted string

h - hammer on

p - pull off

// - slide down

\\ - slide up

b - bend

~~ - vibrato

<7> - natural harmonic

x/// - pick scrape (directions same as slide)


(clean, delay)
e------------------------
b------------------------
g------------------------
d----0-2---0-2----2---2-- x20
a---------------3---0----
d--3-----0---------------
  pm - - - - - - - - - |

e------------
b------------
g------------
d------------  x7
a-0-3-5-0-7--
d------------
  pm- - - -|

e------------
b------------
g------------
d---------2--
a-0-3-5-0----
d------------
  pm- |

e------------------------
b------------------------
g------------------------
d----0-2---0-2----2---2-- x8
a---------------3---0----
d--3-----0---------------
  pm - - - - - - - - -|

1:30
==========
(guitar 1, left channel)
                      x4          x15
e------------------------|------------|------------
b------------------------|------------|------------
g------------------------|------------|------------
d----0-2---0-2----2---2--|------------|---------2--
a---------------3---0----|-0-3-5-0-7--|-0-3-5-0----
d--3-----0---------------|------------|------------
   pm - - - - - - - - -|    pm- - - -|   pm- |

(guitar 2, right channel)
                      x4   **       x8
e------------------------|-------------|-------------------|
b------------------------|-------------|-------------------|
g------------------------|-------------|-------------------|
d----7-9---7-9----9---9--|----5-7---9--|----5-7---9---5-7--|
a-------------------0----|--0-----0----|--0-----0---0------|
d--3-----0-----10--------|-------------|-------------------|
  pm - - - - - - - - -|     pm - - -|    pm - - - - - - -|

 (g2, continued)    x2                  x3
e----------------------|-------------------|-------------------
b----------------------|-------------------|-------------------
g----------------------|-------------------|-------------------
d---9-7-5-7---9---5-7--|----5-7---9---5-7--|---9-7---9-7----2--
a-0---------0---0------|--0-----0---0------|-0-----0------0----
d----------------------|-------------------|-------------------
  pm - - - - - - - -|    pm - - - - - - -|   pm - - - -|

  ** this is what Adam plays live, he plays the first 4 bars of guitar 1
     then finishes with the guitar 2 part... so this is my suggestion
     for playing this part for one guitar.
==========

(distortion)

*feedback*

2:21
e-------------------------
b-------------------------
g-------------------------
d--3--0--5--7----5-7-5-0-- x3
a--3--0--5--7----5-7-5-0--
d--3--0--5--7----5-7-5-0--
                pm- - - |

e-----------------------------
b-----------------------------
g-----------------------------
d--3--0--5--7-----------------
a--3--0--5--7---7-7-7-7-7-7---
d--3--0--5--7-----------------
                ph - - - -|

2:43
e-------------------------------------------------------------
b-------------------------------------------------------------
g-------------------------------------------------------------
d-----10---------------10---------10---------------10--------- x3
a--12----10-12~--10-12----10-12~-----10-12~--10-12----10-12~--
d-------------------------------------------------------------

e---------------------------------------------
b---------------------------------------------
g---------------------------------------------
d-----10---------------10----------10---------
a--12----10-12~--10-12----10-12~------10-12b--
d---------------------------------------------

3:03
==========
(guitar 1, left channel)
                                       x7
e---------------|-------------------------|---------------
b---------------|-------------------------|---------------
g---------------|-------------------------|---------------
d---------------|----10-------------------|-----10--------
a--13-12-10-12--|-12----10-12-13-12-1012--|--12----10-12--
d---------------|-------------------------|---------------
|               |                         |
|(guitar 2, right channel)  x7            |
e---------------|-------------------------|---------------
b---------------|-------------------------|---------------
g---------------|-------------------------|---------------
d---------------|----10-------------------|-----10--------
a--13-12-10-12--|-12----10-12-13-12-1012--|--12----10-12--
d---------------|-------------------------|---------------
                  ph - - - - - - - - - - - - - - - - - |
==========

e-------------------
b-------------------
g-------------------
d--7-10-5-7--7-5h7-- x4
a-------------------
d-------------------

e-------------------
b-------------------
g-------------------
d--7-10-5-7--7-5-7-- x3
a--7-10-5-7--7-5-7--
d--7-10-5-7--7-5-7--

e---------------------
b--9-13-8-10-10-8-10--
g--8-12-7-9--9--7-9---
d--7-10-5-7--7--5-7---
a--7-10-5-7--7--5-7---
d--7-10-5-7--7--5-7---

e------------
b------------
g------------
d------------ x16
a-0-3-5-0-7--
d------------

e------------
b------------
g------------
d------------ x8
a-0-3-5-0-7--
d------------
  pm- - - -|

e------------------
b------------------
g------------------
d------------------
a-5-3-5-0-7-0-3-5--
d------------------
  pm- - - - - - -|

e----------------------
b----------------------
g----------------------
d---------------------- x3
a-0-7-5-3-5-0-7-0-3-5--
d----------------------
  pm- - - - - - - - -|

e------------------------------------------------
b------------------------------------------------
g--------*bass part tabbed for guitar*-----------
d----2-------------------------------------------
a--0-----7--5------------------------------------
d--------------5--7--9--5--7--9--5--7--9--5--7---
  pm -|  nh - - - - - - - - - - - - - - - - - |

                         x7
e--------------|------------|
b--------------|------------|
g--------------|------------|
d--0--3--5--7--|--0-3-5--7--|
a--0--3--5--7--|--0-3-5--7--|
d--0--3--5--7--|--0-3-5--7--|
                  pm-

e-----------------
b-----------------
g-----------------
d--3-0-1-0-0-2-3--
a--3-0-1-0-0-2-3--
d--3-0-1-0-0-2-3--
  pm - - - - - -|

e-----------------------
b-----------------------
g-----------------------
d--0-1-0-3-0-1-0-0-2-3-- x3
a--0-1-0-3-0-1-0-0-2-3--
d--0-1-0-3-0-1-0-0-2-3--
  pm - - - - - - - - -|

e----------------------
b----------------------
g----------------------
d--0-1-0---3-00-0---2-3-- x4
a--0-1-0---3-00-0---2-3--
d--0-1-0---3-00-0---2-3--
  pm - -|    pm    pm -|

e-------------
b-------------
g-------------
d--0-1-0-5-7--
a--0-1-0-5-7--
d--0-1-0-5-7--
   pm - - -|

****************
(guitar 1, left channel)
             x3                              x2
e---------------|---------------|---------------|--------------------
b---------------|---------------|---------------|--------------------
g---------------|---------------|---------------|--------------------
d--5h7---5-7-7--|--5h7---5-7-7--|--5h7---5-7-7--|--5h7-5h7-7-7--5-7--
a--5h7---5-7-7--|--5h7---5-7-7--|--5h7---5-7-7--|--5h7-5h7-7-7--5-7--
d--5h7---5-7-7--|--5h7---5-7-7--|--5h7---5-7-7--|--5h7-5h7-7-7--5-7--
         pm -|           pm -|           pm -|             pm- - - |

(guitar 2, right channel)
             x3                               x2
e---------------|---------------|---------------|--------------------
b---------------|---------------|---------------|--------------------
g---------------|---------------|---------------|--------------------
d--5h7---5-7-7--|-5h7-5h7-7-5-7-|--5h7---7-5-7--|--5h7-----7-7--5-7--
a--5h7---5-7-7--|-5h7-5h7-7-5-7-|--5h7---7-5-7--|--5h7-----7-7-------
d--5h7---5-7-7--|-5h7-5h7-7-5-7-|--5h7---7-5-7--|--5h7-----7-7-------
         pm -|            pm -|          pm -|             pm-| ph-|
****************

e---------------------
b---------------------
g---------------------
d------------5h7------
a------555h7-----5h7--
d--5h7----------------
   ph - - - - - - -|

e---------------------
b---------------------
g---------------------
d-----------5h7------- x3
a-------5h7-----5h7---
d--5h7----------------
   ph - - - - - - -|

e-----------------------
b-----------------------
g------4-5-4---4--------
d----2-------2---2-5-2-- x4
a--0--------------------
d-----------------------

e--------------------------------
b--------------------------------
g-------16-17-16----16-----------
d----14----------14----14-17-14-- x3
a--0-----------------------------
d--------------------------------

e--------------------------------
b--------------------------------
g-------16-17-16-14-16-14-12-----
d----14--------------------------
a--0-----------------------------
d--------------------------------

e---------------------------------------
b--10-10-10-10--10-8-8--3-3-3-3--3-6-6--
g--9--9--9--9---9--7-7--2-2-2-2--2-5-5--
d--7--7--7--7---7--5-5--0-0-0-0--0-3-3-- x4
a--7--7--7--7---7--5-5--0-0-0-0--0-3-3--
d--7--7--7--7---7--5-5--0-0-0-0--0-3-3--

(last note with strong delay)

*pause*

(clean, delay)

e------------------------
b------------------------
g------------------------
d----0-2---0-2----2---2-- x4
a---------------3---0----
d--3-----0---------------
  pm - - - - - - - - - |

e------------------------
b------------------------
g------------------------
d----0-2---0-2----2---2--
a---------------3---0----
d--------0---------------
  pm - - - - - - - - - |

e------------------------
b------------------------
g------------------------
d----0-2---0-2----2---2--
a---------------3---0----
d--3-----0---------------
  pm - - - - - - - - - |

e------------------
b------------------
g------------------
d----0-2----0---2--
a------------------
d--3-----0---------
  pm - - |