Band : Tool
Album: Opiate
Track: 4
Song : Cold and Ugly

Part : Guitar
Tuning: drop D

Tabbed: Nolan Venhola
Email : nolan@tooltabs.net
Visit : Tooltabs.net

Legend

nh - natural harmonic

ph - pinch harmonic

pm - palm mute

x - muted string

h - hammer on

p - pull off

\\ - slide down

// - slide up

b - bend

~~ - vibrato

<7> - natural harmonic

x/// - pick scrape (directions same as slide)


(distortion)

e----------------------------------------------------------
b----------------------------------------------------------
g----------------------------------------------------------
d--0-0-0-3p0-0-0--0-0-0-6p0-5--0-0-0-3p0-0-0--0-0-0-10-10-- x3
a--0-0-0-3p0-0-0--0-0-0-6p0-5--0-0-0-3p0-0-0--0-0-0-10-10--
d--0-0-0-3p0-0-0--0-0-0-6p0-5--0-0-0-3p0-0-0--0-0-0-10-10--
     pm-     pm   pm -|          pm-     pm   pm -|

e----------------------------------------------------------
b----------------------------------------------------------
g----------------------------------------------------------
d--0-0-0-3p0-0-0--0-0-0-6p0-5--0-0-0-3p0-0-0--------6-5----
a--0-0-0-3p0-0-0--0-0-0-6p0-5--0-0-0-3p0-0-0---------------
d--0-0-0-3p0-0-0--0-0-0-6p0-5--0-0-0-3p0-0-0---------------
     pm-     pm   pm -|          pm-     pm-

e----------------------------------------------------------
b----------------------------------------------------------
g----------------------------------------------------------
d--0-0-0-3p0-0-0--0-0-0-6p0-5--0-0-0-3p0-0-0--0-0-0-10-10--
a--0-0-0-3p0-0-0--0-0-0-6p0-5--0-0-0-3p0-0-0--0-0-0-10-10--
d--0-0-0-3p0-0-0--0-0-0-6p0-5--0-0-0-3p0-0-0--0-0-0-10-10--
     pm-     pm   pm -|          pm-     pm   pm -|

e------------------------------------------------------------------------------------12--
b---------------------------------------------------------------------------------12-----
g------------------------------------------------------------10-9------------10-9--------
d-------------------------------------------------10----12--------10----12---------------
a--12-1212-12-12-12--12-10-9---12-1212-12-1212-12----------------------------------------
d----------------------------------------------------------------------------------------

e----------------------------------------------------------
b----------------------------------------------------------
g----------------------------------------------------------
d--0-0-0-3p0-0-0--0-0-0-6p0-5--0-0-0-3p0-0-0--0-0-0-10-10--
a--0-0-0-3p0-0-0--0-0-0-6p0-5--0-0-0-3p0-0-0--0-0-0-10-10--
d--0-0-0-3p0-0-0--0-0-0-6p0-5--0-0-0-3p0-0-0--0-0-0-10-10--
     pm-     pm   pm -|          pm-     pm   pm -|

e------------------------------------------------------------
b------------------------------------------------------------
g------------------------------------------------------------
d--0-0-0-3p0-0-0--0-0-0-6p0-5--0-0-0-3p0-0-0-10-10-10-10-10--
a--0-0-0-3p0-0-0--0-0-0-6p0-5--0-0-0-3p0-0-0-10-10-10-10-10--
d--0-0-0-3p0-0-0--0-0-0-6p0-5--0-0-0-3p0-0-0-10-10-10-10-10--
     pm-     pm   pm -|          pm-     pm

e------------------------------
b------------------------------
g------------------------------
d--0---------------------3----- x4
a--0---------3-------3h5---h5--
d--0-0-0-3h5--h5-3h5-----------
     pm-

*with occasional pinch harmonics*

e------------------------------
b------------------------------
g------------------------------
d--0---------------------3----- x4
a--0---------3-------3h5---h5--
d--0-0-0-3h5--h5-3h5-----------

e-----------------------------------------------------------------------------------------------
b-----------------------------------------------------------------------------------------------
g-----------------------------------------------------------------------------------------------
d-------------------------------------------------10--------------------------------------------
a--12-1212-12-12-12--12-10-9---12-1212-12-1212-12---------------------------------(rest)-10-tr--
d------------------------------------------------------12---15-14-10---12---15-14---------------

e------------------------------
b------------------------------
g------------------------------
d--0---------------------3----- x4
a--0---------3-------3h5---h5--
d--0-0-0-3h5--h5-3h5-----------
     pm-

e-------------------------------------------------
b-------------------------------------------------
g-------------------------------------------------
d--0--0-0-5--5-0-3--3-----0--0-0-5--5-0-3--3---5-- x3
a--0--0-0-5--5-0-3----5---0--0-0-5--5-0-3----5----
d--0--0-0-5--5-0-3--------0--0-0-5--5-0-3---------
      pm-      pm            pm-      pm

*hold*

                                        x5
e---------|---------------------------------|---------------------------------
b---------|---------------------------------|---------------------------------
g---------|---------------------------------|---------------------------------
d--12-10--|--0-5h7-5p0-3h5-3p0-0-0-0-12-10--|--0-5h7-5p0-3h5-3p0-0-0-0-12-10--
a--12-10--|--0-5h7-5p0-3h5-3p0-0-0-0-12-10--|--0-5h7-5p0-3h5-3p0-0-0-0--------
d--12-10--|--0-5h7-5p0-3h5-3p0-0-0-0-12-10--|--0-5h7-5p0-3h5-3p0-0-0-0--------

solo

e--------------------------------------------------------------
b--------------------------------------------------------------
g-------------7h10p10-h10p7-h10--12-12--10--10-----------------
d-------10h12----------------------------------12-10-12h10-12--
a--8h10--------------------------------------------------------
d--------------------------------------------------------------

e-----------------------------------------------------------------------------
b-----------------------------------------------------------------------------
g--------------------------------10-----10h12p10-12--10h12p10-12p10-12p10-----
d--10-12-10-12-12-12h15p12-10h12----12-----------ph-----------------------12--
a-----------------------------------------------------------------------------
d-----------------------------------------------------------------------------

e-----------------------------------------------------------------------------
b-----------------------------------------------------------------------------
g---------------------------------------------------10h12-(trill hard)-12b----
d--10h12-10h12b-10h12-12h15-10h12-12h15-10h12p10h12---------------------------
a-----------------------------------------------------------------------------
d-----------------------------------------------------------------------------

e----------------------------------------
b-----------------------13---------------
g--12r-10---------------12-(trem pick)---
d-------------12---10---10---------------
a-------------12---10--------------------
d-------------12---10--------------------

*rest for two bars of bass*

*pick scrape down the low D string near end of 2nd bar*

e----------------------------------------------------------
b----------------------------------------------------------
g----------------------------------------------------------
d--0-0-0-3p0-0-0--0-0-0-6p0-5--0-0-0-3p0-0-0--0-0-0-10-10--
a--0-0-0-3p0-0-0--0-0-0-6p0-5--0-0-0-3p0-0-0--0-0-0-10-10--
d--0-0-0-3p0-0-0--0-0-0-6p0-5--0-0-0-3p0-0-0--0-0-0-10-10--
     pm-     pm   pm -|          pm-     pm   pm -|

e--------------------------------------------------
b--------------------------------------------------
g--------------------------------------------------
d--0-0-0-3p0-0-0--0-0-0-6p0-5--0-------------------
a--0-0-0-3p0-0-0--0-0-0-6p0-5--0----------//12b----
d--0-0-0-3p0-0-0--0-0-0-6p0-5--0-------------------
     pm-     pm   pm -|        pm

                            x7
e------------------------------|------------------------------
b------------------------------|------------------------6-----
g------------------------------|------------5p0-----5h7---7---
d--0---------------------3-----|--0-----3h5-----3h5-----------
a--0---------3-------3h5---h5--|--0---------------------------
d--0-0-0-3h5--h5-3h5-----------|--0-0-0-----------------------
     pm-                            pm-

e--------------------------------------------------------------------
b---------------------3-----------------/--15------------------------
g---------------------2-(tremolo pick)--/--14-(tremolo pick)---------
d--0---3---5---3---0--0--------------------0-------------------0-----
a--0---3---5---3---0-------------------------------------------0-----
d--0---3---5---3---0-------------------------------------------0-----

(flick toggle switch on/off)