Band : Tool
Album: Opiate
Track: 6
Song : Opiate

Part : Guitar
Tuning: drop D

Tabbed: Nolan Venhola
Email : nolan@tooltabs.net
Visit : Tooltabs.net

Legend

nh - natural harmonic

ph - pinch harmonic

pm - palm mute

x - muted string

h - hammer on

p - pull off

\\ - slide down

// - slide up

b - bend

~~ - vibrato

<7> - natural harmonic

x/// - pick scrape (directions same as slide)


Note: This song is based around one main riff, however this riff varies
      over the song. This trascription is based partly on the album version
      and partly on a live version, used to fill in the gaps and to help
      sort out the variations.

(distortion)

*rest for intro*

*feedback*

e-----------------------------------------------------------
b-----------------------------------------------------------
g-----------------------------------------------------------
d--9-9-9-9-9--0--2--2-2--3-3-3----9-9-9-9-9--0--2--2-2--3--- x2
a--9-9-9-9-9--0--2--2-2--3-3-3----9-9-9-9-9--0--2--2-2--3---
d--9-9-9-9-9--0--2--2-2--3-3-3----9-9-9-9-9--0--2--2-2--3---
       pm-         pm                 pm-         pm

e----------------------------
b----------------------------
g----------------------------
d--9----------0--2-------3--- x4
a--9----------0--2-------3---
d--9----------0--2-------3---

                             x3
e-------------------------------|-------------------------------
b-------------------------------|-------------------------------
g-------------------------------|-------------------------------
d-------------------------------|--------------------2-----3----
a-------------------------------|--------------------2-----3----
d--9-9-9-9-9--0--2--2-2--3-3-3--|--9-9-9-9-9--0--2-2-2-2-2-3----
  pm - - - - - - - - - - - - -|   pm - - - - - - - |   pm-

                             x3
e-------------------------------|-------------------------------
b-------------------------------|-------------------------------
g-------------------------------|-------------------------------
d----------9---------2-----3----|----------9---------2-----3----
a----------9---------2-----3----|----------9-----2-2-2-2-2-3----
d--9-9-9-9-9--0--2-2-2-2-2-3----|--9-9-9-9-9--0--2-2-2-2-2-3----
  pm - - |    pm- -|   pm-        pm - - |

e-------------------------------------------------------------------------------
b--12-12-12-12-12-15--17--17-17--18-18-18----12-12-12-12-12-15--17--17-17--18---
g--11-11-11-11-11-14--16--16-16--17-17-17----11-11-11-11-11-14--16--16-16--17---
d--9--9--9--9--9--12--14--14-14--15-15-15----9--9--9--9--9--12--14--14-14--15--- x4
a--9--9--9--9--9--12--14--14-14--15-15-15----9--9--9--9--9--12--14--14-14--15---
d--9--9--9--9--9--12--14--14-14--15-15-15----9--9--9--9--9--12--14--14-14--15---

                  x3                                           x3
e--------------------|---------------------|----------------------|-------------------
b--------------------|---------------------|----------------------|-------------------
g--------------------|---------------------|----------------------|-------------------
d--12-12--12-12------|--12-12--12-12b------|--12-12--12-12-(hold)-|--12-12--12-12b----
a--12-12--12-12------|--12-12--12----------|--12-12--12-12--------|--12-12--12-12b----
d--12-12--12-12------|--12-12--12----------|--12-12--12-12--------|--12-12--12-12b----

                                      x3
e----------------------------------------|--------------------------------------
b---------15-15--15-15--15-15--15-(trem--|---------15-15--15-15--15-15--15b-----
g---------14-14--14-14--14-14--14--pick)-|---------14-14--14-14--14-14--14b-----
d--12-12--12-12--12-12--12-12--12--------|--12-12--12-12--12-12--12-12--12b-----
a--12-12---------------------------------|--12-12-------------------------------
d--12-12---------------------------------|--12-12-------------------------------

e-------------------------------------------------------------------
b--12-12-12-12-12----5--5-5--6-6-6----12-12-12-12-12----5--5-5--6---
g--11-11-11-11-11----4--4-4--5-5-5----11-11-11-11-11----4--4-4--5---
d--9--9--9--9--9--0--2--2-2--3-3-3----9--9--9--9--9--0--2--2-2--3--- x4
a--9--9--9--9--9--0--2--2-2--3-3-3----9--9--9--9--9--0--2--2-2--3---
d--9--9--9--9--9--0--2--2-2--3-3-3----9--9--9--9--9--0--2--2-2--3---
         pm -          pm                   pm -          pm

e------------------
b------------------
g------------------
d--9----(hold)-----
a--9---------------
d--9---------------

*rest for 2 bars*

                    x7
e----------------------|------------------
b----------------------|------------------
g----------------------|------------------
d--9-9-9-9-9-----------|--9-9-9-9-9-------
a--9-9-9-9-9-----------|--9-9-9-9-9-------
d--9-9-9-9-9-----------|--9-9-9-9-9-------
   pm - - -|

e-------------------------------------------------------------------
b--12-12-12-12-12----5--5-5--6-6-6----12-12-12-12-12----5--5-5--6---
g--11-11-11-11-11----4--4-4--5-5-5----11-11-11-11-11----4--4-4--5---
d--9--9--9--9--9--0--2--2-2--3-3-3----9--9--9--9--9--0--2--2-2--3--- x6
a--9--9--9--9--9--0--2--2-2--3-3-3----9--9--9--9--9--0--2--2-2--3---
d--9--9--9--9--9--0--2--2-2--3-3-3----9--9--9--9--9--0--2--2-2--3---
         pm -          pm                   pm -          pm

                  x3                                           x3
e--------------------|---------------------|----------------------|-------------------
b--------------------|---------------------|----------------------|-------------------
g--------------------|---------------------|----------------------|-------------------
d--12-12--12-12------|--12-12--12-12b------|--12-12--12-12-(hold)-|--12-12--12-12b----
a--12-12--12-12------|--12-12--12----------|--12-12--12-12--------|--12-12--12-12b----
d--12-12--12-12------|--12-12--12----------|--12-12--12-12--------|--12-12--12-12b----

e------------------------------------------
b------------15----------------------------
g------------14-(tremolo pick for 4 bars)--
d--12--12-12-12----------------------------
a--12--12-12-------------------------------
d--12--12-12-------------------------------
   pm - - -|

e----------------------------
b----------------------------
g----------------------------
d--12--12-12-12-------------- x8
a--12--12-12-12-(trem pick)--
d--12--12-12-12--------------
  pm - - - - - - - - - - - -

e----------------------
b--15------------------
g--14------------------
d--12--(hold)---------- x4
a--12------------------
d--12------------------

e-------------------------
b-------------------------
g-------------------------
d--0--0-0-12-------------- x8
a--0--0-0-12-(trem pick)--
d--0--0-0-12--------------
  pm - - - - - - - - -

e---------------------------------
b--15-----------------------------
g--14--(tremolo pick for 4 bars)--
d--12-----------------------------
a--12-----------------------------
d--12-----------------------------

e------------------
b---------15-------
g---------14-------
d--0--0-0-12------- x4
a--0--0-0-12-------
d--0--0-0-12-------
  pm - -|

                   x3
e---------------------|------------------
b--15-15-15-----------|--15-15-15--------
g--14-14-14-----------|--14-14-14--------
d--12-12-12-12-12-12--|--12-12-12--------
a-----------12-12-12--|--12-12-12--------
d-----------12-12-12--|--12-12-12--------