Band : Tool
Album: Opiate
Track: 3
Song : Part of Me

Part : Guitar
Tuning: drop D

Tabbed: Nolan Venhola
Email : nolan@tooltabs.net
Visit : Tooltabs.net

Legend

nh - natural harmonic

ph - pinch harmonic

pm - palm mute

x - muted string

h - hammer on

p - pull off

\\ - slide down

// - slide up

b - bend

~~ - vibrato

<7> - natural harmonic

x/// - pick scrape (directions same as slide)


(distortion)

*Hold the C5 chord at the 10th fret and feedback*

e---------------------------------------------------
b---------------------------------------------------
g---------------------------------------------------
d--2-x-x-2-x-x-10-x-x-10-x-x-2-x-x-2-x-x-5--4--2-0-- x2
a--2-x-x-2-x-x-10-x-x-10-x-x-2-x-x-2-x-x-5--4--2-0--
d--2-x-x-2-x-x-10-x-x-10-x-x-2-x-x-2-x-x-5--4--2-0--
                                               pm-

e--------------------------------
b--------------------------------
g--------------------------------
d--0-6-5-0-3----0-6-5-0-3--3--3-- x4
a--0-6-5-0-3----0-6-5-0-3--3--3--
d--0-6-5-0-3----0-6-5-0-3--3--3--
   pm - -|      pm - -|

e---------------------------------
b---------------------------------
g---------------------------------
d--0-2--0-10--0-2--0-10--0-2--10--
a--0-2--0-10--0-2--0-10--0-2--10--
d--0-2--0-10--0-2--0-10--0-2--10--

                              x2                               x2
e--------------------------------|--------------------------------
b--------------------------------|--------------------------------
g--------------------------------|--------------------------------
d--0-6-5-0-3----0-6-5-0-3--3--3--|----------3---------3--------6-- (x2)
a--0-6-5-0-3----0-6-5-0-3--3--3--|----6-5-------6-5------6--5-----
d--0-6-5-0-3----0-6-5-0-3--3--3--|--0-----0---0-----0-------------
   pm - - - - - - - - - - - - |

e-----------------------------------------
b-----------------------------------------
g-----------------------------------------
d--0-6-5-0-3----0-6-5-0-3--3--3--3--3--3--
a--0-6-5-0-3----0-6-5-0-3--3--3--3--3--3--
d--0-6-5-0-3----0-6-5-0-3--3--3--3--3--3--
   pm - - - - - - - - - - - - - - - - -|

*quick rest*

e--------------------------------------------------
b--------------------------------------------------
g--------------------------------------------------
d--------------------------------------------------
a------------------------(for 12 bars, slowly let--
d--0-0-0-0-0-0-0-0-0-...-- off pm in 12th bar )----
  pm - - - - - - - -

e---------------------------------------------------
b---------------------------------------------------
g---------------------------------------------------
d--2-x-x-2-x-x-10-x-x-10-x-x-2-x-x-2-x-x-5--4--2-0-- x2
a--2-x-x-2-x-x-10-x-x-10-x-x-2-x-x-2-x-x-5--4--2-0--
d--2-x-x-2-x-x-10-x-x-10-x-x-2-x-x-2-x-x-5--4--2-0--
                                               pm-

solo

e--------------------------------------
b----------------------------------12--
g--------9-11-9-----9----------9-------
d------9---------9-----9-----9---9-----
a--7----------------------7------------
d--------------------------------------

 (or)

e--------0-2--0-----0----------0---7------------------------
b------0---------0-----0-----0---0--------------------------
g-----------------------------------------------------------
d--2---------------------2----------------------------------
a-----------------------------------------------------------
d-----------------------------------------------------------

                              x6
e--------------------------------|---------------------------------
b--------------------------------|---------------------------------
g--------------------------------|---------------------------------
d--0-6-5-0-3----0-6-5-0-3--3--3--|--0-2--0-10--0-2--0-10--0-2--10--
a--0-6-5-0-3----0-6-5-0-3--3--3--|--0-2--0-10--0-2--0-10--0-2--10--
d--0-6-5-0-3----0-6-5-0-3--3--3--|--0-2--0-10--0-2--0-10--0-2--10--
   pm - -|      pm - - - - - -|

                              x6
e--------------------------------|---------------------------------
b--------------------------------|---------------------------------
g--------------------------------|---------------------------------
d--------------------------------|--0-2--0-10--0-2--0-10--0-2--10--
a--0-6-5-0-3----0-6-5-0-3--3--3--|--0-2--0-10--0-2--0-10--0-2--10--
d--0-6-5-0-3----0-6-5-0-3--3--3--|--0-2--0-10--0-2--0-10--0-2--10--
   pm - - - - - -  - - - - - -|

                              x4                               x2
e--------------------------------|--------------------------------
b--------------------------------|--------------------------------
g--------------------------------|--------------------------------
d--0-6-5-0-3----0-6-5-0-3--3--3--|----------3---------3--------6--
a--0-6-5-0-3----0-6-5-0-3--3--3--|----6-5-------6-5------6--5-----
d--0-6-5-0-3----0-6-5-0-3--3--3--|--0-----0---0-----0-------------
   pm - -|      pm - -|

                              x2                               x2
e--------------------------------|--------------------------------
b--------------------------------|--------------------------------
g--------------------------------|--------------------------------
d--0-6-5-0-3----0-6-5-0-3--3--3--|----------3---------3--------6--
a--0-6-5-0-3----0-6-5-0-3--3--3--|----6-5-------6-5------6--5-----
d--0-6-5-0-3----0-6-5-0-3--3--3--|--0-----0---0-----0-------------
   pm - -|      pm - -|

e-----------------------------------
b-----------------------------------
g-----------------------------------
d--0-6-5-0-3----0-6-5-0-3--3--3--3--
a--0-6-5-0-3----0-6-5-0-3--3--3--3--
d--0-6-5-0-3----0-6-5-0-3--3--3--3--
   pm - -|      pm - -|