Band : Tool
Album: Undertow
Track: 5
Song : Crawl Away

Part : Guitar
Tuning: drop D

Tabbed: Nolan Venhola
Email : nolan@tooltabs.net
Visit : Tooltabs.net

Legend

nh - natural harmonic

ph - pinch harmonic

pm - palm mute

x - muted string

h - hammer on

p - pull off

\\ - slide down

// - slide up

b - bend

~~ - vibrato

<7> - natural harmonic

x/// - pick scrape (directions same as slide)


*Celtic folk music*

(distortion)

0:17
                                  x3
e------|-----------------------------|----------------------
b------|--------------2--------------|--------------2b------
g------|----------3---------3---3----|----------3-------0---
d--2---|--2/4-4-4---4---4-4---4---4--|--2/4-4-4---4---------
a------|-----------------------------|----------------------
d------|-----------------------------|----------------------

e|---------------------------------------------------
b|---------------------------------------------------
g|*--------------------------------------------------
d|*-2h4-xx-4-x-4-4-4-4-44--2h4-xx-4-x-4-4/-12-12-12--
a|--2h4-xx-4-x-4-4-4-4-44--2h4-xx-4-x-4-4/-12-12-12--
d|--2h4-xx-4-x-4-4-4-4-44--2h4-xx-4-x-4-4/-12-12-12--

e-------------------------------------------------|
b-------------------------------------------------|
g------------------------------------------------*|
d--2h4-xx-4-x-4-4-4-4-44--2h4-xx-4-x-4-4--10-9-7-*| x2
a--2h4-xx-4-x-4-4-4-4-44--2h4-xx-4-x-4-4--10-9-7--|
d--2h4-xx-4-x-4-4-4-4-44--2h4-xx-4-x-4-4--10-9-7--|

e-------------------------------------------------------
b-------------------------------------------------------
g-------------------------------------------------------
d--14-xx-14-x-14-14-14-14-14--2h4-xx-4-x-4-4/-12-12-12--
a--14-xx-14-x-14-14-14-14-14--2h4-xx-4-x-4-4/-12-12-12--
d--14-xx-14-x-14-14-14-14-14--2h4-xx-4-x-4-4/-12-12-12--

e-------------------------------------------------------
b-------------------------------------------------------
g-------------------------------------------------------
d--14-xx-14-x-14-14-14-14-14--16--16-16--16--16-16b-----
a--14-xx-14-x-14-14-14-14-14--16--16-16--16--16-16b-----
d--14-xx-14-x-14-14-14-14-14--16--16-16--16--16-16b-----

e------------------------------------------------------------------------
b------------------------------------------------------------------------
g--------------------------------------------------------------------16--
d------------------------------------------------------------------------
a--16-16-16-16-16--16-14---16-16-16-16-16--16-14---14h16-14h16-14-14-----
d------------------------------------------------------------------------
                                                                  ph - |

e----------------------
b----------------------
g----------------------
d----------------------
a--16p14-16------------
d-----------14-14b-\\--

*rest*

e-------------------------------------------------------------
b-------------------------------------------------------------
g-------------------------------------------------------------
d--0-10-9-7--2h4-xx-4-x-4-4-4-4-44--2h4-xx-4-x-4-4/-12-12-12--
a--0-10-9-7--2h4-xx-4-x-4-4-4-4-44--2h4-xx-4-x-4-4/-12-12-12--
d--0-10-9-7--2h4-xx-4-x-4-4-4-4-44--2h4-xx-4-x-4-4/-12-12-12--
            pm - - - - - - - - - - - - - - - - - - - - - - -|

e---------------------------------------------------
b---------------------------------------------------
g---------------------------------------------------
d--2h4-xx-4-x-4-4-4-4-44--2h4----------------44444--
a--2h4-xx-4-x-4-4-4-4-44--2h4--------4444444444444--
d--2h4-xx-4-x-4-4-4-4-44--2h4-44444444444444444444--
  pm - - - - - - - - - - - - - - - - - - - - - |

e---------------------------------------------------
b---------------------------------------------------
g---------------------------------------------------
d--2h4-xx-4-x-4-4-4-4-44--2h4-xx-4-x-4-4/-12-12-12--
a--2h4-xx-4-x-4-4-4-4-44--2h4-xx-4-x-4-4/-12-12-12--
d--2h4-xx-4-x-4-4-4-4-44--2h4-xx-4-x-4-4/-12-12-12--

e---------------------------------------------------
b---------------------------------------------------
g---------------------------------------------------
d--2h4-xx-4-x-4-4-4-4-44--2h4-xx-4-x-4-4--0-10-9-7--
a--2h4-xx-4-x-4-4-4-4-44--2h4-xx-4-x-4-4--0-10-9-7--
d--2h4-xx-4-x-4-4-4-4-44--2h4-xx-4-x-4-4--0-10-9-7--

e--------------------------------------------------------------
b--------------------------<9>---------------------------------
g-----------------------<9><9><9>------------------------------
d--4--7--10--9----<9><9><9>---<9>--4--7--10--9--9-9-9-9-9-9-9-- x2
a--4--7--10--9-<9><9><9>-----------4--7--10--9--9-9-9-9-9-9-9--
d--4--7--10--9-<9>-----------------4--7--10--9--9-9-9-9-9-9-9--
                                                pm - - - -|

e------------------------------------------------
b------------------------------------------------
g------------------------------------------------
d------------------------------------------------
a-----------------------------------------5-5-5--
d--2h4-xx-4-x-4-4-4-4-44--2h4-xx-4-x-4-4---------
  semi ph - - - - - - - - - - - - - - - - - - -|

e--------------------------------------
b--------------------------------------
g--------------------------------6b-\--
d--4-44-4-44-4-4-4-44-4-44-4-4---------
a--------------------------------------
d--------------------------------------
  ph - - - - - - - - - - - - - - - |

*rest*

e-----------------------------------------------------------
b-----------------------------------------------------------
g-----------------------------------------------------------
d--0-10-9-7-----------------------2h4-----------------4--5--
a--0-10-9-7---2h4-xx-4-x-4-2--4-x-------2h4-xx-4-x-4--4--5--
d--0-10-9-7---2h4-xx-4-x-4--------------2h4-xx-4-x-4-----5--
                           ph - - - -|

e---------------------------------------------------
b---------------------------------------------------
g---------------------------------------------------
d--2h4-xx-4-x-4-4-4-4-44--2h4----------------44444--
a--2h4-xx-4-x-4-4-4-4-44--2h4--------4444444444444--
d--2h4-xx-4-x-4-4-4-4-44--2h4-44444444444444444444--
  pm - - - - - - - - - - - - - - - - - - - - - |

e---------------------------------------------------
b---------------------------------------------------
g---------------------------------------------------
d--2h4-xx-4-x-4-4-4-4-44--2h4-xx-4-x-4-4/-12-12-12--
a--2h4-xx-4-x-4-4-4-4-44--2h4-xx-4-x-4-4/-12-12-12--
d--2h4-xx-4-x-4-4-4-4-44--2h4-xx-4-x-4-4/-12-12-12--

e---------------------------------------------------
b---------------------------------------------------
g---------------------------------------------------
d--2h4-xx-4-x-4-4-4-4-44--2h4-xx-4-x-4-4--0-10-9-7--
a--2h4-xx-4-x-4-4-4-4-44--2h4-xx-4-x-4-4--0-10-9-7--
d--2h4-xx-4-x-4-4-4-4-44--2h4-xx-4-x-4-4--0-10-9-7--

e--------------------------------------------------------------
b--------------------------<9>---------------------------------
g-----------------------<9><9><9>------------------------------
d--4--7--10--9----<9><9><9>---<9>--4--7--10--9--9-9-9-9-9-9-9-- x2
a--4--7--10--9-<9><9><9>-----------4--7--10--9--9-9-9-9-9-9-9--
d--4--7--10--9-<9>-----------------4--7--10--9--9-9-9-9-9-9-9--
                                                pm - - - -|

           x3                                                  x4
e---------------|-------------------|-----------------------------
b---------------|-------------------|-----------------------------
g---------------|-------------------|-----------------------------
d--2-5-5-2-4----|--2-5-5-2-4--------|--2-5-5-2-4-xxx-4-xxx-4-xxx--
a--2-5-5-2-4----|--2-5-5-2-4--------|--2-5-5-2-4-xxx-4-xxx-4-xxx--
d--2-5-5-2-4----|--2-5-5-2-4--x\\\--|--2-5-5-2-4-xxx-4-xxx-4-xxx--

**
(all tremolo picking)

e------------------------------------------------------------
b------------------------------------------------------------
g------------------------------------------------------------
d------------------------------------------------------------
a------------------------------------------------------------
d--2-5--4----------//-16----------------4--11--12--9--11--2--
   pm - - - - - - - - - - (let off pm)
**

e----------------------------------------------------
b----------------------------------------------------
g----------------------------------------------------
d----------------------------------------------------
a----------------------------------------------------
d--2-4b-2-4b-2-/-16b---(hold and slight feedback)-b--

e-------------------------------------------------------------
b-------------------------------------------------------------
g-------------------------------------------------------------
d--14-xx-14-x-14-14-14-14-14--16--16-16--16-16-16--16b-16-16--
a--14-xx-14-x-14-14-14-14-14--16--16-16--16-16-16--16b-16-16--
d--14-xx-14-x-14-14-14-14-14--16--16-16--16-16-16--16b-16-16--

e-------------------------------------------------------
b-------------------------------------------------------
g-------------------------------------------------------
d--14-xx-14-x-14-14-14-14-14----------------------------
a--14-xx-14-x-14-14-14-14-14----------------------------
d--14-xx-14-x-14-14-14-14-14--16-14h16-14h16-14h16b-----

*hold and feedback*

e---------------------------------------------------
b---------------------------------------------------
g---------------------------------------------------
d--2h4-xx-4-x-4-4-4-4-44--2h4-xx-4-x-4-4/-12-12-12--
a--2h4-xx-4-x-4-4-4-4-44--2h4-xx-4-x-4-4/-12-12-12--
d--2h4-xx-4-x-4-4-4-4-44--2h4-xx-4-x-4-4/-12-12-12--
  pm - - - - - - - - - - - - - - - - - - |

e---------------------------------------------------
b---------------------------------------------------
g---------------------------------------------------
d--2h4-xx-4-x-4-4-4-4-44--2h4----------------44444--
a--2h4-xx-4-x-4-4-4-4-44--2h4--------4444444444444--
d--2h4-xx-4-x-4-4-4-4-44--2h4-44444444444444444444--
  pm - - - - - - - - - - - - - - - - - - - - - |

e---------------------------------------------------
b---------------------------------------------------
g---------------------------------------------------
d--2h4-xx-4-x-4-4-4-4-44--2h4-xx-4-x-4-4/-12-12-12--
a--2h4-xx-4-x-4-4-4-4-44--2h4-xx-4-x-4-4/-12-12-12--
d--2h4-xx-4-x-4-4-4-4-44--2h4-xx-4-x-4-4/-12-12-12--

e---------------------------------------------------
b---------------------------------------------------
g---------------------------------------------------
d--2h4-xx-4-x-4-4-4-4-44--2h4-xx-4-x-4-4--0-10-9-7--
a--2h4-xx-4-x-4-4-4-4-44--2h4-xx-4-x-4-4--0-10-9-7--
d--2h4-xx-4-x-4-4-4-4-44--2h4-xx-4-x-4-4--0-10-9-7--

e--------------------------------------------------------------
b--------------------------<9>---------------------------------
g-----------------------<9><9><9>------------------------------
d--4--7--10--9----<9><9><9>---<9>--4--7--10--9--9-9-9-9-9-9-9-- x2
a--4--7--10--9-<9><9><9>-----------4--7--10--9--9-9-9-9-9-9-9--
d--4--7--10--9-<9>-----------------4--7--10--9--9-9-9-9-9-9-9--
                                                pm - - - -|
e---------------
b---------------
g---------------
d--2-5-5-2-4----
a--2-5-5-2-4----
d--2-5-5-2-4----