Band : Tool
Album: Undertow
Track: 1
Song : Intolerance

Part : Guitar
Tuning: drop D

Tabbed: Nolan Venhola
Email : nolan@tooltabs.net
Visit : Tooltabs.net

Legend

nh - natural harmonic

ph - pinch harmonic

pm - palm mute

x - muted string

h - hammer on

p - pull off

\\ - slide down

// - slide up

b - bend

~~ - vibrato

<7> - natural harmonic

x/// - pick scrape (directions same as slide)


0:22

e------------------------------------------
b------------------------------------------
g------------------------------------------
d--0--3--5--6p5-0h1--0--10--3--5--6p5-0h1-- x4
a--0--3--5--6p5-0h1--0--10--3--5--6p5-0h1--
d--0--3--5--6p5-0h1--0--10--3--5--6p5-0h1--

e--------------------------------------
b--------------------------------------
g--------------------------------------
d-------------------------------------- x2
a-----------------------------------3--
d--0--3--0--3--0--1--0--3--0--1--1-----

e---------------------------------------------------
b---------------------------------------------------
g---------------------------------------------------
d---------------------------------------------------
a--5---5-6-5----5---5-6-3---5---5-6-5----5---5-6b---
d----3-------3----3-----------3-------3----3--------
       ph

e--------------------------------------
b--------------------------------------
g--------------------------------------
d-------------------------------------- x2
a-----------------------------------3--
d--0--3--0--3--0--1--0--3--0--1--1-----
  pm - - - - - - - - - - - - - - - - |

e---------------------------------------------------------
b---------------------------------------------------------
g---------------------------------------------------------
d--------------------------------------------------00-00--
a--------------------------------------------------00-00--
d--0--0-xxx-x---0--0-xxx-x---0--0-xxx-x---0--0--0--00-00--

(guitar 1)                       x2
e------------------------------------|------------------------------------------
b------------------------------------|------------------------------------------
g------------------------------------|------------------------------------------
d--10-(1st time only, hold)----------|--10b-12-12-12-12-10b-12-12---------------
a------------------------------------|--10b-12-12-12-12-10b-12-12---------------
d------------------------------------|--10b-12-12-12-12-10b-12-12-0-12p0-13-15--
|                                    |
|(guitar 2)                      x2  |
e------------------------------------|------------------------------------
b------------------------------------|------------------------------------
g------------------------------------|------------------------------------
d--10--0--0--0--0--10--0--0--0--1-3--|--10--0--0--0--0--10--0--0--0--1-3--
a--10--0--0--0--0--10--0--0--0--1-3--|--10--0--0--0--0--10--0--0--0--1-3--
d--10--0--0--0--0--10--0--0--0--1-3--|--10--0--0--0--0--10--0--0--0--1-3--

(guitar 1)
e------------------------------------
b------------------------------------
g------------------------------------
d--10b-12-12-12-12-10b-12-12b--------
a--10b-12-12-12-12-10b-12-12b--------
d--10b-12-12-12-12-10b-12-12b--------
|
|(guitar 2)
e------------------------------------
b------------------------------------
g------------------------------------
d--10--0--0--0--0--10--0--0--0-------
a--10--0--0--0--0--10--0--0--0-------
d--10--0--0--0--0--10--0--0--0--1-3--

e---------------------------------------
b---------------------------------------
g---------------------------------------
d--0--3--0--3--0--1--0--3--0--1--1--10-- x2
a--0--3--0--3--0--1--0--3--0--1--1--10--
d--0--3--0--3--0--1--0--3--0--1--1--10--

e-----------------------------------------
b-----------------------------------------
g-----------------------------------------
d-----------------------------------------
a--12--(hold)-------------*feedback*------
d-----------------------------------------

e-----------------------------------------------------------------------------------------
b-----------------------------------------------------------------------------------------
g-----------------------------------------------------------------------------------------
d-----------------------------------------------------------------------------------------
a-----------------------------------------------------------------------------------------
d--0-xx-0--0--0--0---0-xx-0--0--0-10h12-10h12---0-xx-0--0--0--0---0-xx-0--0--0-10h12--12--

*hold and feedback*

(guitar 1, with wah)
e------------------------------------|------------------------------------
b------------------------------------|--(open wah and close it)-----------
g--(several high pitched feebacks----|------------------------------------
d---using wah pedal as a filter)-----|--12--------------------------------
a------------------------------------|--12------------------(feedback)----
d------------------------------------|--12--------------------------------
|                                    |
|(guitar 2)                          |
e------------------------------------|------------------------------------
b------------------------------------|------------------------------------
g------------------------------------|------------------------------------
d--10--0--0--0--0--10--0--0--0--1-3--|--10--0--0--0--0--10--0--0--0--1-3--
a--10--0--0--0--0--10--0--0--0--1-3--|--10--0--0--0--0--10--0--0--0--1-3--
d--10--0--0--0--0--10--0--0--0--1-3--|--10--0--0--0--0--10--0--0--0--1-3--

(guitar 1, with wah closed for treble sound)
e------------------------------------|------------------------------------
b--15--15-1515-15--15--15-1515-15----|--15--15-1515-15--20--20-2020-20\\--
g--14--14-1414-14--14--14-1414-14----|--14--14-1414-14--19--19-1919-19\\--
d--12--12-1212-12--12--12-1212-12----|--12--12-1212-12--17--17-1717-17\\--
a--12--12-1212-12--12--12-1212-12----|--12--12-1212-12--17--17-1717-17\\--
d--12--12-1212-12--12--12-1212-12----|--12--12-1212-12--17--17-1717-17\\--
|                                    |
|(guitar 2)                          |
e------------------------------------|------------------------------------
b------------------------------------|------------------------------------
g------------------------------------|------------------------------------
d--10--0--0--0--0--10--0--0--0--1-3--|--10--0--0--0--0--10--0--0--0--1-3--
a--10--0--0--0--0--10--0--0--0--1-3--|--10--0--0--0--0--10--0--0--0--1-3--
d--10--0--0--0--0--10--0--0--0--1-3--|--10--0--0--0--0--10--0--0--0--1-3--

e----------------------------
b----------------------------
g----------------------------
d-------------------------0-- x3
a--3----3----3---------0--0--
d----h5---h5---h5-3p0--0--0--

e-------------------------
b-------------------------
g-------------------------
d-------------------------
a--3----3----3---------0--
d----h5---h5---h5-3p0--0--

e------------------------------------------
b------------------------------------------
g------------------------------------------
d--0--3--5--6p5-0h1--0--10--3--5--6p5-0h1-- x2
a--0--3--5--6p5-0h1--0--10--3--5--6p5-0h1--
d--0--3--5--6p5-0h1--0--10--3--5--6p5-0h1--

e-----------------------------------------
b-----------------------------------------
g-----------------------------------------
d----------------------------------------- x2
a-----3--5--6h5-5h3----5--3--5--6h5-5h3---
d--0----------------0---------------------
      ph-|*
                   *1st time only, right channel only

noise interlude

(with some wah effects in there, you figure em out)

e--------------------------------------------------------
b--------------------------------------------------------
g--------------------------------------------------------
d------------------------------------------x\\-----------
a-----12b--*feeback*-------x\\\\--x/////-----x\\\\-<17>--
d-0------------------------------------------------------

e------------------------------------------------
b------------------------------------------------
g------------------------------------------------
d--------x///--x\\\\------x\\\\\\\---0--0--0--0--
a--x\\\\-------------x\\-------------0--0--0--0--
d------------------------------------0--0--0--0--

e------------------------------------
b------------------------------------
g------------------------------------
d--10--0--0--0--0--10--0--0--0--1-3-- x2
a--10--0--0--0--0--10--0--0--0--1-3--
d--10--0--0--0--0--10--0--0--0--1-3--

(guitar 1, with wah closed)
e------------------------------------|------------------------------------
b------------------------------------|------------------------------------
g------------------------------------|------------------------------------
d--12----b-----r-----10~-------------|--12---10---------------------------
a------------------------------------|------------12--10--10h12p10-\\\\\--
d------------------------------------|------------------------------------
|                                    |
|(guitar 2)                          |
e------------------------------------|------------------------------------
b------------------------------------|------------------------------------
g------------------------------------|------------------------------------
d--10--0--0--0--0--10--0--0--0--1-3--|--10--0--0--0--0--10--0--0--0--1-3--
a--10--0--0--0--0--10--0--0--0--1-3--|--10--0--0--0--0--10--0--0--0--1-3--
d--10--0--0--0--0--10--0--0--0--1-3--|--10--0--0--0--0--10--0--0--0--1-3--

(guitar 1, with wah closed)
e------------------------------------|------------------------------------
b------------------------------------|------------------------------------
g------------------------------------|----------------/-19--(interesting--
d--12-------------~~~----------------|-----------------------effect here)-
a------------------------------------|------------------------------------
d------------------------------------|------------------------------------
|                                    |
|(guitar 2)                          |
e------------------------------------|------------------------------------
b------------------------------------|------------------------------------
g------------------------------------|------------------------------------
d--10--0--0--0--0--10--0--0--0--1-3--|--10--0--0--0--0--10--0--0--0--1-3--
a--10--0--0--0--0--10--0--0--0--1-3--|--10--0--0--0--0--10--0--0--0--1-3--
d--10--0--0--0--0--10--0--0--0--1-3--|--10--0--0--0--0--10--0--0--0--1-3--

e----------------------------
b----------------------------
g----------------------------
d-------------------------0-- x8
a--3----3----3---------0--0--
d----h5---h5---h5-3p0--0--0--

(guitar 1)
e----------------------------
b-------------------------3--
g--5p0--5p0--5p0----------2--
d-----------------3p0--0--0-- x8
a----------------------------
d----------------------------
|                           |
|(guitar 2)                 |
e----------------------------
b----------------------------
g----------------------------
d-------------------------0-- x8
a--3----3----3---------0--0--
d----h5---h5---h5-3p0--0--0--

e----------------------------------------------------
b----------------------------------------------------
g------------------------------16--------------------
d---------------------------------14-12-14p12--------
a-----14---------------------14---------------14p12--
d--14----14-12-14p12-12p10---------------------------
  ph - - - - - - - - - - - - - - - - - - - - - - - |

e----------------------------------------------------
b----------------------------------------------------
g----16----------------------------------------------
d-------14-12-14p12----------------------------------
a--14---------------14p12----------------------------
d---------------------------14----14-12-14p12-12p10--
  ph - - - - - - - - - - - - - - - - - - - - - - - |

e--------------------------------
b--------------------------------
g--------------------------------
d--0h12--10---------------------- x4
a--0h12--10----------------------
d--0h12--10--10--12-13p12-12p10--

e----------------------------------
b----------------------------------
g-------------------(with delay)---
d--12-------(12)-----------/////---
a--12--(12)----------------/////---
d--12----------------------/////---